  0
SECTION
  2
HEADER
  9
$ACADVER
  1
AC1015
  9
$ACADMAINTVER
 70
     6
  9
$DWGCODEPAGE
  3
ANSI_1252
  9
$INSBASE
 10
0.0
 20
0.0
 30
0.0
  9
$EXTMIN
 10
1496.8437252043
 20
-731.7930815541
 30
0.0
  9
$EXTMAX
 10
2296.8437252043
 20
508.2069184459
 30
0.0
  9
$LIMMIN
 10
0.0
 20
0.0
  9
$LIMMAX
 10
420.0
 20
297.0
  9
$ORTHOMODE
 70
     0
  9
$REGENMODE
 70
     1
  9
$FILLMODE
 70
     1
  9
$QTEXTMODE
 70
     0
  9
$MIRRTEXT
 70
     1
  9
$LTSCALE
 40
1.0
  9
$ATTMODE
 70
     1
  9
$TEXTSIZE
 40
3.5
  9
$TRACEWID
 40
1.0
  9
$TEXTSTYLE
  7
Standard
  9
$CLAYER
  8
0
  9
$CELTYPE
  6
ByLayer
  9
$CECOLOR
 62
   256
  9
$CELTSCALE
 40
1.0
  9
$DISPSILH
 70
     0
  9
$DIMSCALE
 40
1.0
  9
$DIMASZ
 40
3.556
  9
$DIMEXO
 40
1.0
  9
$DIMDLI
 40
3.75
  9
$DIMRND
 40
0.0
  9
$DIMDLE
 40
0.0
  9
$DIMEXE
 40
1.0
  9
$DIMTP
 40
0.0
  9
$DIMTM
 40
0.0
  9
$DIMTXT
 40
3.5
  9
$DIMCEN
 40
2.5
  9
$DIMTSZ
 40
0.0
  9
$DIMTOL
 70
     0
  9
$DIMLIM
 70
     0
  9
$DIMTIH
 70
     1
  9
$DIMTOH
 70
     1
  9
$DIMSE1
 70
     0
  9
$DIMSE2
 70
     0
  9
$DIMTAD
 70
     1
  9
$DIMZIN
 70
     0
  9
$DIMBLK
  1

  9
$DIMASO
 70
     1
  9
$DIMSHO
 70
     1
  9
$DIMPOST
  1

  9
$DIMAPOST
  1

  9
$DIMALT
 70
     0
  9
$DIMALTD
 70
     3
  9
$DIMALTF
 40
0.0393700787
  9
$DIMLFAC
 40
1.0
  9
$DIMTOFL
 70
     1
  9
$DIMTVP
 40
0.0
  9
$DIMTIX
 70
     0
  9
$DIMSOXD
 70
     0
  9
$DIMSAH
 70
     0
  9
$DIMBLK1
  1

  9
$DIMBLK2
  1

  9
$DIMSTYLE
  2
ISO-25
  9
$DIMCLRD
 70
     0
  9
$DIMCLRE
 70
     0
  9
$DIMCLRT
 70
     0
  9
$DIMTFAC
 40
1.0
  9
$DIMGAP
 40
1.524
  9
$DIMJUST
 70
     0
  9
$DIMSD1
 70
     0
  9
$DIMSD2
 70
     0
  9
$DIMTOLJ
 70
     0
  9
$DIMTZIN
 70
     0
  9
$DIMALTZ
 70
     0
  9
$DIMALTTZ
 70
     0
  9
$DIMUPT
 70
     0
  9
$DIMDEC
 70
     2
  9
$DIMTDEC
 70
     2
  9
$DIMALTU
 70
     2
  9
$DIMALTTD
 70
     3
  9
$DIMTXSTY
  7
Standard
  9
$DIMAUNIT
 70
     0
  9
$DIMADEC
 70
     2
  9
$DIMALTRND
 40
0.0
  9
$DIMAZIN
 70
     0
  9
$DIMDSEP
 70
    44
  9
$DIMATFIT
 70
     3
  9
$DIMFRAC
 70
     0
  9
$DIMLDRBLK
  1

  9
$DIMLUNIT
 70
     2
  9
$DIMLWD
 70
    -2
  9
$DIMLWE
 70
    -2
  9
$DIMTMOVE
 70
     0
  9
$LUNITS
 70
     2
  9
$LUPREC
 70
     2
  9
$SKETCHINC
 40
1.0
  9
$FILLETRAD
 40
10.0
  9
$AUNITS
 70
     0
  9
$AUPREC
 70
     2
  9
$MENU
  1
.
  9
$ELEVATION
 40
0.0
  9
$PELEVATION
 40
0.0
  9
$THICKNESS
 40
0.0
  9
$LIMCHECK
 70
     0
  9
$CHAMFERA
 40
10.0
  9
$CHAMFERB
 40
10.0
  9
$CHAMFERC
 40
20.0
  9
$CHAMFERD
 40
0.0
  9
$SKPOLY
 70
     0
  9
$TDCREATE
 40
2457674.983845058
  9
$TDUCREATE
 40
2457674.900511724
  9
$TDUPDATE
 40
2457674.983884306
  9
$TDUUPDATE
 40
2457674.900550972
  9
$TDINDWG
 40
0.0000000116
  9
$TDUSRTIMER
 40
0.0000000116
  9
$USRTIMER
 70
     1
  9
$ANGBASE
 50
0.0
  9
$ANGDIR
 70
     0
  9
$PDMODE
 70
     0
  9
$PDSIZE
 40
-1.0
  9
$PLINEWID
 40
0.0
  9
$SPLFRAME
 70
     0
  9
$SPLINETYPE
 70
     6
  9
$SPLINESEGS
 70
     8
  9
$HANDSEED
  5
36B
  9
$SURFTAB1
 70
     6
  9
$SURFTAB2
 70
     6
  9
$SURFTYPE
 70
     6
  9
$SURFU
 70
     6
  9
$SURFV
 70
     6
  9
$UCSBASE
  2

  9
$UCSNAME
  2

  9
$UCSORG
 10
0.0
 20
0.0
 30
0.0
  9
$UCSXDIR
 10
1.0
 20
0.0
 30
0.0
  9
$UCSYDIR
 10
0.0
 20
1.0
 30
0.0
  9
$UCSORTHOREF
  2

  9
$UCSORTHOVIEW
 70
     0
  9
$UCSORGTOP
 10
0.0
 20
0.0
 30
0.0
  9
$UCSORGBOTTOM
 10
0.0
 20
0.0
 30
0.0
  9
$UCSORGLEFT
 10
0.0
 20
0.0
 30
0.0
  9
$UCSORGRIGHT
 10
0.0
 20
0.0
 30
0.0
  9
$UCSORGFRONT
 10
0.0
 20
0.0
 30
0.0
  9
$UCSORGBACK
 10
0.0
 20
0.0
 30
0.0
  9
$PUCSBASE
  2

  9
$PUCSNAME
  2

  9
$PUCSORG
 10
0.0
 20
0.0
 30
0.0
  9
$PUCSXDIR
 10
1.0
 20
0.0
 30
0.0
  9
$PUCSYDIR
 10
0.0
 20
1.0
 30
0.0
  9
$PUCSORTHOREF
  2

  9
$PUCSORTHOVIEW
 70
     0
  9
$PUCSORGTOP
 10
0.0
 20
0.0
 30
0.0
  9
$PUCSORGBOTTOM
 10
0.0
 20
0.0
 30
0.0
  9
$PUCSORGLEFT
 10
0.0
 20
0.0
 30
0.0
  9
$PUCSORGRIGHT
 10
0.0
 20
0.0
 30
0.0
  9
$PUCSORGFRONT
 10
0.0
 20
0.0
 30
0.0
  9
$PUCSORGBACK
 10
0.0
 20
0.0
 30
0.0
  9
$USERI1
 70
     0
  9
$USERI2
 70
     0
  9
$USERI3
 70
     0
  9
$USERI4
 70
     0
  9
$USERI5
 70
     0
  9
$USERR1
 40
0.0
  9
$USERR2
 40
0.0
  9
$USERR3
 40
0.0
  9
$USERR4
 40
0.0
  9
$USERR5
 40
0.0
  9
$WORLDVIEW
 70
     1
  9
$SHADEDGE
 70
     3
  9
$SHADEDIF
 70
    70
  9
$TILEMODE
 70
     1
  9
$MAXACTVP
 70
    64
  9
$PINSBASE
 10
0.0
 20
0.0
 30
0.0
  9
$PLIMCHECK
 70
     0
  9
$PEXTMIN
 10
1.0000000000E+20
 20
1.0000000000E+20
 30
1.0000000000E+20
  9
$PEXTMAX
 10
-1.0000000000E+20
 20
-1.0000000000E+20
 30
-1.0000000000E+20
  9
$PLIMMIN
 10
0.0
 20
0.0
  9
$PLIMMAX
 10
420.0
 20
297.0
  9
$UNITMODE
 70
     0
  9
$VISRETAIN
 70
     1
  9
$PLINEGEN
 70
     0
  9
$PSLTSCALE
 70
     1
  9
$TREEDEPTH
 70
  3020
  9
$CMLSTYLE
  2
Standard
  9
$CMLJUST
 70
     0
  9
$CMLSCALE
 40
20.0
  9
$PROXYGRAPHICS
 70
     1
  9
$MEASUREMENT
 70
     1
  9
$CELWEIGHT
370
    -1
  9
$ENDCAPS
280
     0
  9
$JOINSTYLE
280
     0
  9
$LWDISPLAY
290
     1
  9
$INSUNITS
 70
     4
  9
$HYPERLINKBASE
  1

  9
$STYLESHEET
  1

  9
$XEDIT
290
     1
  9
$CEPSNTYPE
380
     0
  9
$PSTYLEMODE
290
     1
  9
$FINGERPRINTGUID
  2
{465E5B09-C834-4531-B4EA-87B2A99429E2}
  9
$VERSIONGUID
  2
{FAEB1C32-E019-11D5-929B-00C0DF256EC4}
  9
$EXTNAMES
290
     1
  9
$PSVPSCALE
 40
0.0
  9
$OLESTARTUP
290
     0
  0
ENDSEC
  0
SECTION
  2
CLASSES
  0
CLASS
  1
ACDBDICTIONARYWDFLT
  2
AcDbDictionaryWithDefault
  3
ObjectDBX Classes
 90
        0
280
     0
281
     0
  0
CLASS
  1
VISUALSTYLE
  2
AcDbVisualStyle
  3
ObjectDBX Classes
 90
     4095
280
     0
281
     0
  0
CLASS
  1
MATERIAL
  2
AcDbMaterial
  3
ObjectDBX Classes
 90
     1153
280
     0
281
     0
  0
CLASS
  1
ACDBPLACEHOLDER
  2
AcDbPlaceHolder
  3
ObjectDBX Classes
 90
        0
280
     0
281
     0
  0
CLASS
  1
LAYOUT
  2
AcDbLayout
  3
ObjectDBX Classes
 90
        0
280
     0
281
     0
  0
ENDSEC
  0
SECTION
  2
TABLES
  0
TABLE
  2
VPORT
  5
8
330
0
100
AcDbSymbolTable
 70
     1
  0
VPORT
  5
29
330
8
100
AcDbSymbolTableRecord
100
AcDbViewportTableRecord
  2
*Active
 70
     0
 10
0.0
 20
0.0
 11
1.0
 21
1.0
 12
1896.8437252043
 22
-111.7930815541
 13
0.0
 23
0.0
 14
10.0
 24
10.0
 15
10.0
 25
10.0
 16
0.0
 26
0.0
 36
1.0
 17
0.0
 27
0.0
 37
0.0
 40
1264.8
 41
0.6451612903
 42
50.0
 43
0.0
 44
0.0
 50
0.0
 51
0.0
 71
     0
 72
   100
 73
     1
 74
     3
 75
     0
 76
     0
 77
     0
 78
     0
281
     0
 65
     1
110
0.0
120
0.0
130
0.0
111
1.0
121
0.0
131
0.0
112
0.0
122
1.0
132
0.0
 79
     0
146
0.0
  0
ENDTAB
  0
TABLE
  2
LTYPE
  5
5
330
0
100
AcDbSymbolTable
 70
     6
  0
LTYPE
  5
14
330
5
100
AcDbSymbolTableRecord
100
AcDbLinetypeTableRecord
  2
ByBlock
 70
     0
  3

 72
    65
 73
     0
 40
0.0
  0
LTYPE
  5
15
330
5
100
AcDbSymbolTableRecord
100
AcDbLinetypeTableRecord
  2
ByLayer
 70
     0
  3

 72
    65
 73
     0
 40
0.0
  0
LTYPE
  5
16
330
5
100
AcDbSymbolTableRecord
100
AcDbLinetypeTableRecord
  2
Continuous
 70
     0
  3
Solid line
 72
    65
 73
     0
 40
0.0
  0
LTYPE
  5
3F
330
5
100
AcDbSymbolTableRecord
100
AcDbLinetypeTableRecord
  2
HIDDEN
 70
     0
  3
Hidden __ __ __ __ __ __ __ __ __ __ __ __ __ __
 72
    65
 73
     2
 40
1.905
 49
1.27
 74
     0
 49
-0.635
 74
     0
  0
LTYPE
  5
40
330
5
100
AcDbSymbolTableRecord
100
AcDbLinetypeTableRecord
  2
PHANTOM
 70
     0
  3
Phantom ______  __  __  ______  __  __  ______
 72
    65
 73
     6
 40
12.7
 49
6.35
 74
     0
 49
-1.27
 74
     0
 49
1.27
 74
     0
 49
-1.27
 74
     0
 49
1.27
 74
     0
 49
-1.27
 74
     0
  0
LTYPE
  5
41
330
5
100
AcDbSymbolTableRecord
100
AcDbLinetypeTableRecord
  2
CENTER
 70
     0
  3
Center ____ _ ____ _ ____ _ ____ _ ____ _ ____
 72
    65
 73
     4
 40
10.16
 49
6.35
 74
     0
 49
-1.27
 74
     0
 49
1.27
 74
     0
 49
-1.27
 74
     0
  0
LTYPE
  5
42
330
5
100
AcDbSymbolTableRecord
100
AcDbLinetypeTableRecord
  2
CENTERX2
 70
     0
  3
Center (2x) ________  __  ________  __  _____
 72
    65
 73
     4
 40
20.32
 49
12.7
 74
     0
 49
-2.54
 74
     0
 49
2.54
 74
     0
 49
-2.54
 74
     0
  0
LTYPE
  5
43
330
5
100
AcDbSymbolTableRecord
100
AcDbLinetypeTableRecord
  2
DOT2
 70
     0
  3
Dot (.5x) ........................................
 72
    65
 73
     2
 40
0.635
 49
0.0
 74
     0
 49
-0.635
 74
     0
  0
ENDTAB
  0
TABLE
  2
LAYER
  5
2
330
0
100
AcDbSymbolTable
 70
     1
  0
LAYER
  5
10
330
2
100
AcDbSymbolTableRecord
100
AcDbLayerTableRecord
  2
0
 70
     0
 62
     7
  6
Continuous
370
    -3
390
F
  0
ENDTAB
  0
TABLE
  2
STYLE
  5
3
330
0
100
AcDbSymbolTable
 70
     1
  0
STYLE
  5
11
330
3
100
AcDbSymbolTableRecord
100
AcDbTextStyleTableRecord
  2
Standard
 70
     0
 40
0.0
 41
1.0
 50
0.0
 71
     0
 42
3.5
  3
txt
  4

  0
ENDTAB
  0
TABLE
  2
VIEW
  5
6
330
0
100
AcDbSymbolTable
 70
     0
  0
ENDTAB
  0
TABLE
  2
UCS
  5
7
330
0
100
AcDbSymbolTable
 70
     0
  0
ENDTAB
  0
TABLE
  2
APPID
  5
9
330
0
100
AcDbSymbolTable
 70
     1
  0
APPID
  5
12
330
9
100
AcDbSymbolTableRecord
100
AcDbRegAppTableRecord
  2
ACAD
 70
     0
  0
ENDTAB
  0
TABLE
  2
DIMSTYLE
  5
A
330
0
100
AcDbSymbolTable
 70
     1
100
AcDbDimStyleTable
  0
DIMSTYLE
105
27
330
A
100
AcDbSymbolTableRecord
100
AcDbDimStyleTableRecord
  2
ISO-25
 70
     0
 41
2.5
 42
0.625
 43
3.75
 44
1.25
 73
     0
 74
     0
 77
     1
 78
     8
140
2.5
141
2.5
143
0.0393700787
147
0.625
171
     3
172
     1
178
     0
271
     2
272
     2
274
     3
278
    44
283
     0
284
     8
340
11
  0
ENDTAB
  0
TABLE
  2
BLOCK_RECORD
  5
1
330
0
100
AcDbSymbolTable
 70
     1
  0
BLOCK_RECORD
  5
1F
330
1
100
AcDbSymbolTableRecord
100
AcDbBlockTableRecord
  2
*Model_Space
340
22
  0
BLOCK_RECORD
  5
1B
330
1
100
AcDbSymbolTableRecord
100
AcDbBlockTableRecord
  2
*Paper_Space
340
1E
  0
BLOCK_RECORD
  5
23
330
1
100
AcDbSymbolTableRecord
100
AcDbBlockTableRecord
  2
*Paper_Space0
340
26
  0
ENDTAB
  0
ENDSEC
  0
SECTION
  2
BLOCKS
  0
BLOCK
  5
20
330
1F
100
AcDbEntity
  8
0
100
AcDbBlockBegin
  2
*Model_Space
 70
     0
 10
0.0
 20
0.0
 30
0.0
  3
*Model_Space
  1

  0
ENDBLK
  5
21
330
1F
100
AcDbEntity
  8
0
100
AcDbBlockEnd
  0
BLOCK
  5
1C
330
1B
100
AcDbEntity
 67
     1
  8
0
100
AcDbBlockBegin
  2
*Paper_Space
 70
     0
 10
0.0
 20
0.0
 30
0.0
  3
*Paper_Space
  1

  0
ENDBLK
  5
1D
330
1B
100
AcDbEntity
 67
     1
  8
0
100
AcDbBlockEnd
  0
BLOCK
  5
24
330
23
100
AcDbEntity
  8
0
100
AcDbBlockBegin
  2
*Paper_Space0
 70
     0
 10
0.0
 20
0.0
 30
0.0
  3
*Paper_Space0
  1

  0
ENDBLK
  5
25
330
23
100
AcDbEntity
  8
0
100
AcDbBlockEnd
  0
ENDSEC
  0
SECTION
  2
ENTITIES
  0
ARC
  5
44
330
1F
100
AcDbEntity
  8
0
  6
Continuous
 62
     7
100
AcDbCircle
 10
1869.4094330032
 20
-410.4336756855
 30
0.0
 40
76.20246158099974
100
AcDbArc
 50
183.762214095
 51
209.6839082266
  0
ARC
  5
45
330
1F
100
AcDbEntity
  8
0
  6
Continuous
 62
     7
100
AcDbCircle
 10
1869.459413222
 20
-410.4336459665
 30
0.0
 40
71.20246158100164
100
AcDbArc
 50
148.1768977633
 51
211.8231194874
  0
ARC
  5
46
330
1F
100
AcDbEntity
  8
0
  6
Continuous
 62
     7
100
AcDbCircle
 10
1789.7033257204
 20
-253.9918257796
 30
0.0
 40
194.9402380722073
100
AcDbArc
 50
275.6690942352
 51
304.3150118979
  0
ARC
  5
47
330
1F
100
AcDbEntity
  8
0
  6
Continuous
 62
     7
100
AcDbCircle
 10
1790.0882480146
 20
-253.816942405
 30
0.0
 40
198.9402635924361
100
AcDbArc
 50
283.7831330504
 51
305.7525888597
  0
ARC
  5
48
330
1F
100
AcDbEntity
  8
0
  6
Continuous
 62
     7
100
AcDbCircle
 10
1789.7033433092
 20
-566.8755128825
 30
0.0
 40
194.9402635924401
100
AcDbArc
 50
55.6849718247
 51
84.3309150431
  0
ARC
  5
49
330
1F
100
AcDbEntity
  8
0
  6
Continuous
 62
     7
100
AcDbCircle
 10
1790.0882098829
 20
-567.0503650162
 30
0.0
 40
198.9402635924335
100
AcDbArc
 50
54.0719369174
 51
76.2168589914
  0
ARC
  5
4A
330
1F
100
AcDbEntity
  8
0
  6
Continuous
 62
     7
100
AcDbCircle
 10
1896.3586487809
 20
-410.4336468404
 30
0.0
 40
5.601791860102597
100
AcDbArc
 50
305.3467683509
 51
54.6522570914
  0
ARC
  5
4B
330
1F
100
AcDbEntity
  8
0
  6
Continuous
 62
     7
100
AcDbCircle
 10
1919.4306184298
 20
-410.4336700909
 30
0.0
 40
4.185832394537878
100
AcDbArc
 50
132.2762758135
 51
227.7234339609
  0
ARC
  5
4C
330
1F
100
AcDbEntity
  8
0
  6
Continuous
 62
     7
100
AcDbCircle
 10
1909.2302038109
 20
-420.3026266354
 30
0.0
 40
5.813412224580833
100
AcDbArc
 50
52.8156908347
 51
119.9678226262
  0
ARC
  5
4D
330
1F
100
AcDbEntity
  8
0
  6
Continuous
 62
     7
100
AcDbCircle
 10
1909.2301997514
 20
-401.1022163342
 30
0.0
 40
5.420616540332156
100
AcDbArc
 50
243.6022925724
 51
303.2325947923
  0
ARC
  5
4E
330
1F
100
AcDbEntity
  8
0
  6
Continuous
 62
     7
100
AcDbCircle
 10
1789.7033433092
 20
-566.8755128825
 30
0.0
 40
194.940263592431
100
AcDbArc
 50
39.2290866137
 51
50.8635306748
  0
ARC
  5
4F
330
1F
100
AcDbEntity
  8
0
  6
Continuous
 62
     7
100
AcDbCircle
 10
1934.4675948685
 20
-285.1791358197
 30
0.0
 40
158.6531449618454
100
AcDbArc
 50
274.1491924271
 51
305.913236275
  0
ARC
  5
50
330
1F
100
AcDbEntity
  8
0
  6
Continuous
 62
     7
100
AcDbCircle
 10
1934.5476636153
 20
-285.1733248966
 30
0.0
 40
162.6531449623577
100
AcDbArc
 50
284.8281641606
 51
306.5130164344
  0
ARC
  5
51
330
1F
100
AcDbEntity
  8
0
  6
Continuous
 62
     7
100
AcDbCircle
 10
1934.4676158295
 20
-535.6882196386
 30
0.0
 40
158.653144962351
100
AcDbArc
 50
54.0867733135
 51
85.8508147404
  0
ARC
  5
52
330
1F
100
AcDbEntity
  8
0
  6
Continuous
 62
     7
100
AcDbCircle
 10
1790.0882480146
 20
-253.816942405
 30
0.0
 40
198.9402635924453
100
AcDbArc
 50
309.4943889381
 51
321.5769715945
  0
ARC
  5
53
330
1F
100
AcDbEntity
  8
0
  6
Continuous
 62
     7
100
AcDbCircle
 10
1790.0882098829
 20
-567.0503650162
 30
0.0
 40
198.9402635924951
100
AcDbArc
 50
38.4230112745
 51
50.5056026857
  0
ARC
  5
54
330
1F
100
AcDbEntity
  8
0
  6
Continuous
 62
     7
100
AcDbCircle
 10
1789.7033257204
 20
-253.9918257796
 30
0.0
 40
194.9402635924369
100
AcDbArc
 50
308.931088634
 51
320.7709174174
  0
ARC
  5
55
330
1F
100
AcDbEntity
  8
0
  6
Continuous
 62
     7
100
AcDbCircle
 10
1934.5476453224
 20
-535.6940059096
 30
0.0
 40
162.6531447295947
100
AcDbArc
 50
53.4869777367
 51
75.1718334951
  0
ARC
  5
56
330
1F
100
AcDbEntity
  8
0
  6
Continuous
 62
     7
100
AcDbCircle
 10
2044.4708903349
 20
-410.4336735844
 30
0.0
 40
4.000000000000631
100
AcDbArc
 50
131.2688303796
 51
228.7311611547
  0
ARC
  5
57
330
1F
100
AcDbEntity
  8
0
  6
Continuous
 62
     7
100
AcDbCircle
 10
2142.2394376135
 20
-410.4336734812
 30
0.0
 40
4.000000000001127
100
AcDbArc
 50
302.4130183975
 51
57.5869882583
  0
ARC
  5
58
330
1F
100
AcDbEntity
  8
0
  6
Continuous
 62
     7
100
AcDbCircle
 10
2034.8971894879
 20
-400.1438225348
 30
0.0
 40
5.999999999999619
100
AcDbArc
 50
233.4869777369
 51
311.13945758
  0
ARC
  5
59
330
1F
100
AcDbEntity
  8
0
  6
Continuous
 62
     7
100
AcDbCircle
 10
2025.1808622508
 20
-410.4336701385
 30
0.0
 40
3.999999999997763
100
AcDbArc
 50
305.9132362768
 51
54.0867733138
  0
ARC
  5
5A
330
1F
100
AcDbEntity
  8
0
  6
Continuous
 62
     7
100
AcDbCircle
 10
1934.4676158295
 20
-535.6882196386
 30
0.0
 40
158.6531449623403
100
AcDbArc
 50
37.2781366196
 51
48.8605505535
  0
ARC
  5
5B
330
1F
100
AcDbEntity
  8
0
  6
Continuous
 62
     7
100
AcDbCircle
 10
1934.5476636153
 20
-285.1733248966
 30
0.0
 40
162.6531449623639
100
AcDbArc
 50
311.2688303796
 51
323.7124388656
  0
ARC
  5
5C
330
1F
100
AcDbEntity
  8
0
  6
Continuous
 62
     7
100
AcDbCircle
 10
1934.5476453224
 20
-535.6940059096
 30
0.0
 40
162.6531447296718
100
AcDbArc
 50
36.2875501529
 51
48.7311611835
  0
ARC
  5
5D
330
1F
100
AcDbEntity
  8
0
  6
Continuous
 62
     7
100
AcDbCircle
 10
1934.4675948685
 20
-285.1791358197
 30
0.0
 40
158.6531449623582
100
AcDbArc
 50
311.13945758
 51
322.7218685137
  0
ARC
  5
5E
330
1F
100
AcDbEntity
  8
0
  6
Continuous
 62
     7
100
AcDbCircle
 10
2055.0839271304
 20
-273.1675129467
 30
0.0
 40
166.5979146097624
100
AcDbArc
 50
273.6381264659
 51
302.4130183969
  0
ARC
  5
5F
330
1F
100
AcDbEntity
  8
0
  6
Continuous
 62
     7
100
AcDbCircle
 10
2055.1952473885
 20
-273.1604632574
 30
0.0
 40
170.5979136151407
100
AcDbArc
 50
284.4520949687
 51
303.5748138833
  0
ARC
  5
60
330
1F
100
AcDbEntity
  8
0
  6
Continuous
 62
     7
100
AcDbCircle
 10
2055.1952346186
 20
-547.7068855997
 30
0.0
 40
170.5979146090955
100
AcDbArc
 50
56.4251844301
 51
75.5479030866
  0
ARC
  5
61
330
1F
100
AcDbEntity
  8
0
  6
Continuous
 62
     7
100
AcDbCircle
 10
2055.0839430717
 20
-547.6998441366
 30
0.0
 40
166.5979146090769
100
AcDbArc
 50
57.5869882571
 51
86.3618790172
  0
ARC
  5
62
330
1F
100
AcDbEntity
  8
0
  6
Continuous
 62
     7
100
AcDbCircle
 10
2055.1952473885
 20
-273.1604632574
 30
0.0
 40
170.5979136151899
100
AcDbArc
 50
308.1658972882
 51
318.4009878531
  0
ARC
  5
63
330
1F
100
AcDbEntity
  8
0
  6
Continuous
 62
     7
100
AcDbCircle
 10
2055.0839271304
 20
-273.1675129467
 30
0.0
 40
166.5979146091496
100
AcDbArc
 50
307.5038769388
 51
317.7454072968
  0
ARC
  5
64
330
1F
100
AcDbEntity
  8
0
  6
Continuous
 62
     7
100
AcDbCircle
 10
2055.1952346186
 20
-547.7068855997
 30
0.0
 40
170.5979146091534
100
AcDbArc
 50
41.5990063252
 51
51.8340976382
  0
ARC
  5
65
330
1F
100
AcDbEntity
  8
0
  6
Continuous
 62
     7
100
AcDbCircle
 10
2055.0839430717
 20
-547.6998441366
 30
0.0
 40
166.5979146091524
100
AcDbArc
 50
42.2545914158
 51
52.4961266824
  0
ARC
  5
66
330
1F
100
AcDbEntity
  8
0
  6
Continuous
 62
     7
100
AcDbCircle
 10
1762.6207026659
 20
-437.5152849486
 30
0.0
 40
12.00000000000045
100
AcDbArc
 50
180.0
 51
271.9074719869
  0
ARC
  5
67
330
1F
100
AcDbEntity
  8
0
  6
Continuous
 62
     7
100
AcDbCircle
 10
1762.6207026659
 20
-383.3520700363
 30
0.0
 40
12.00000000000061
100
AcDbArc
 50
88.0925286897
 51
180.0
  0
ARC
  5
68
330
1F
100
AcDbEntity
  8
0
  6
Continuous
 62
     7
100
AcDbCircle
 10
1762.6207026659
 20
-383.8675468061
 30
0.0
 40
12.00000000000045
100
AcDbArc
 50
180.0
 51
270.0
  0
ARC
  5
69
330
1F
100
AcDbEntity
  8
0
  6
Continuous
 62
     7
100
AcDbCircle
 10
1762.6207026659
 20
-427.4337647828
 30
0.0
 40
12.00000000000045
100
AcDbArc
 50
90.0
 51
180.0
  0
ARC
  5
6A
330
1F
100
AcDbEntity
  8
0
  6
Continuous
 62
     7
100
AcDbCircle
 10
2034.8971941294
 20
-420.7235186674
 30
0.0
 40
5.999999999999832
100
AcDbArc
 50
48.8605505599
 51
126.5130164344
  0
ARC
  5
6B
330
1F
100
AcDbEntity
  8
0
  6
Continuous
 62
     7
100
AcDbCircle
 10
2163.086376446
 20
-410.4336788147
 30
0.0
 40
3.999999999998688
100
AcDbArc
 50
128.1658972882
 51
231.8340976383
  0
ARC
  5
6C
330
1F
100
AcDbEntity
  8
0
  6
Continuous
 62
     7
100
AcDbCircle
 10
2152.8583642021
 20
-400.5717892962
 30
0.0
 40
5.99999999999893
100
AcDbArc
 50
236.4251844294
 51
307.5038769391
  0
ARC
  5
6D
330
1F
100
AcDbEntity
  8
0
  6
Continuous
 62
     7
100
AcDbCircle
 10
2152.8583720912
 20
-420.2955616076
 30
0.0
 40
5.999999999999889
100
AcDbArc
 50
52.496126682
 51
123.5748138844
  0
ARC
  5
6E
330
1F
100
AcDbEntity
  8
0
  6
Continuous
 62
     7
100
AcDbCircle
 10
1869.4094330032
 20
-410.4336756855
 30
0.0
 40
76.2024615809997
100
AcDbArc
 50
150.3160944394
 51
168.9800737976
  0
ARC
  5
6F
330
1F
100
AcDbEntity
  8
0
  6
Continuous
 62
     7
100
AcDbCircle
 10
1881.7422933506
 20
-681.7350611118
 30
0.0
 40
31.00000000000057
100
AcDbArc
 50
270.0
 51
0.0
  0
ARC
  5
70
330
1F
100
AcDbEntity
  8
0
  6
Continuous
 62
     7
100
AcDbCircle
 10
1555.7643288974
 20
-681.7350611118
 30
0.0
 40
31.00000000000023
100
AcDbArc
 50
180.0
 51
270.0
  0
ARC
  5
71
330
1F
100
AcDbEntity
  8
0
  6
Continuous
 62
     7
100
AcDbCircle
 10
1766.8912069676
 20
-644.7350611118
 30
0.0
 40
10.00000000000007
100
AcDbArc
 50
90.0
 51
143.9801343476
  0
ARC
  5
72
330
1F
100
AcDbEntity
  8
0
  6
Continuous
 62
     7
100
AcDbCircle
 10
1670.6154152804
 20
-644.7350611118
 30
0.0
 40
10.00000000000025
100
AcDbArc
 50
36.0198656524
 51
90.0
  0
ARC
  5
73
330
1F
100
AcDbEntity
  8
0
  6
Continuous
 62
     7
100
AcDbCircle
 10
1751.753311124
 20
-665.5554027419
 30
0.0
 40
10.00000000000007
100
AcDbArc
 50
143.9801343476
 51
180.0
  0
ARC
  5
74
330
1F
100
AcDbEntity
  8
0
  6
Continuous
 62
     7
100
AcDbCircle
 10
1685.753311124
 20
-665.5554027419
 30
0.0
 40
9.999999999999865
100
AcDbArc
 50
0.0
 51
36.0198656524
  0
ARC
  5
75
330
1F
100
AcDbEntity
  8
0
  6
Continuous
 62
     7
100
AcDbCircle
 10
2508.1387459125
 20
-413.2536791125
 30
0.0
 40
317.1160262294738
100
AcDbArc
 50
180.0325374582
 51
189.7891530803
  0
ARC
  5
76
330
1F
100
AcDbEntity
  8
0
  6
Continuous
 62
     7
100
AcDbCircle
 10
2257.3714669839
 20
-347.9337647825
 30
0.0
 40
62.00000000000053
100
AcDbArc
 50
185.3335132782
 51
253.6739161677
  0
ARC
  5
77
330
1F
100
AcDbEntity
  8
0
  6
Continuous
 62
     7
100
AcDbCircle
 10
2257.3714669839
 20
-347.9337647825
 30
0.0
 40
61.66506790436048
100
AcDbArc
 50
102.7731101185
 51
150.4070641636
  0
ARC
  5
78
330
1F
100
AcDbEntity
  8
0
  6
Continuous
 62
     7
100
AcDbCircle
 10
2257.2395806441
 20
-348.5856246696
 30
0.0
 40
57.99999999999994
100
AcDbArc
 50
103.4612586063
 51
256.5387413937
  0
ARC
  5
79
330
1F
100
AcDbEntity
  8
0
  6
Continuous
 62
     7
100
AcDbCircle
 10
2508.1387459132
 20
-407.613850453
 30
0.0
 40
317.1160262294748
100
AcDbArc
 50
170.2108469197
 51
179.9674625418
  0
ARC
  5
7A
330
1F
100
AcDbEntity
  8
0
  6
Continuous
 62
     7
100
AcDbCircle
 10
2257.2395806441
 20
-472.2819048961
 30
0.0
 40
57.99999999999993
100
AcDbArc
 50
103.4612586063
 51
256.5387413937
  0
ARC
  5
7B
330
1F
100
AcDbEntity
  8
0
  6
Continuous
 62
     7
100
AcDbCircle
 10
2257.3714669832
 20
-472.933764783
 30
0.0
 40
61.66506790383362
100
AcDbArc
 50
209.5929358368
 51
257.2268898822
  0
ARC
  5
7C
330
1F
100
AcDbEntity
  8
0
  6
Continuous
 62
     7
100
AcDbCircle
 10
2257.3714669832
 20
-472.933764783
 30
0.0
 40
61.99999999999991
100
AcDbArc
 50
106.3260838323
 51
174.6664867218
  0
ARC
  5
7D
330
1F
100
AcDbEntity
  8
0
  6
Continuous
 62
     7
100
AcDbCircle
 10
1690.753311124
 20
-707.7350611118
 30
0.0
 40
5.000000000000341
100
AcDbArc
 50
270.0
 51
0.0
  0
ARC
  5
7E
330
1F
100
AcDbEntity
  8
0
  6
Continuous
 62
     7
100
AcDbCircle
 10
1529.7643288974
 20
-639.7350611118
 30
0.0
 40
5.000000000000341
100
AcDbArc
 50
90.0
 51
180.0
  0
ARC
  5
7F
330
1F
100
AcDbEntity
  8
0
  6
Continuous
 62
     7
100
AcDbCircle
 10
1907.7422933506
 20
-639.7350611118
 30
0.0
 40
5.000000000000909
100
AcDbArc
 50
0.0
 51
90.0
  0
ARC
  5
80
330
1F
100
AcDbEntity
  8
0
  6
Continuous
 62
     7
100
AcDbCircle
 10
1746.753311124
 20
-707.7350611118
 30
0.0
 40
4.999999999999886
100
AcDbArc
 50
180.0
 51
270.0
  0
ARC
  5
81
330
1F
100
AcDbEntity
  8
0
  6
Continuous
 62
     7
100
AcDbCircle
 10
1365.2318974342
 20
65.0833612446
 30
0.0
 40
460.5990990687745
100
AcDbArc
 50
51.6205150844
 51
56.2822156926
  0
ARC
  5
82
330
1F
100
AcDbEntity
  8
0
  6
Continuous
 62
     7
100
AcDbCircle
 10
1253.4786563478
 20
-40.5241340493
 30
0.0
 40
909.7891990869522
100
AcDbArc
 50
21.0877040104
 51
24.5924788307
  0
ARC
  5
83
330
1F
100
AcDbEntity
  8
0
  6
Continuous
 62
     7
100
AcDbCircle
 10
1492.3288083304
 20
271.0657215485
 30
0.0
 40
218.8848530196525
100
AcDbArc
 50
54.0240772727
 51
66.075637153
  0
ARC
  5
84
330
1F
100
AcDbEntity
  8
0
  6
Continuous
 62
     7
100
AcDbCircle
 10
1639.1692901264
 20
458.0811970684
 30
0.0
 40
83.84177229903129
100
AcDbArc
 50
172.3613846111
 51
183.2588058601
  0
ARC
  5
85
330
1F
100
AcDbEntity
  8
0
  6
Continuous
 62
     7
100
AcDbCircle
 10
1563.849785976
 20
466.2494862601
 30
0.0
 40
8.32826724751805
100
AcDbArc
 50
102.2746109611
 51
159.0608235925
  0
ARC
  5
86
330
1F
100
AcDbEntity
  8
0
  6
Continuous
 62
     7
100
AcDbCircle
 10
1565.1992353076
 20
435.3185931651
 30
0.0
 40
39.19315882609745
100
AcDbArc
 50
66.075637153
 51
94.5659289655
  0
ARC
  5
87
330
1F
100
AcDbEntity
  8
0
  6
Continuous
 62
     7
100
AcDbCircle
 10
1680.4334802486
 20
122.7072580827
 30
0.0
 40
460.5990990687739
100
AcDbArc
 50
28.2651623196
 51
51.6205150844
  0
ARC
  5
88
330
1F
100
AcDbEntity
  8
0
  6
Continuous
 62
     7
100
AcDbCircle
 10
1253.3576052676
 20
-40.2100492115
 30
0.0
 40
915.7891990869516
100
AcDbArc
 50
10.8751011317
 51
24.5869151117
  0
ARC
  5
89
330
1F
100
AcDbEntity
  8
0
  6
Continuous
 62
     7
100
AcDbCircle
 10
1680.3354512843
 20
122.8387029295
 30
0.0
 40
454.5990990687735
100
AcDbArc
 50
40.6503017523
 51
49.6356423063
  0
ARC
  5
8A
330
1F
100
AcDbEntity
  8
0
  6
Continuous
 62
     7
100
AcDbCircle
 10
1639.1692901264
 20
458.0811970684
 30
0.0
 40
76.8417722990317
100
AcDbArc
 50
177.3372882849
 51
183.1806351958
  0
ARC
  5
8B
330
1F
100
AcDbEntity
  8
0
  6
Continuous
 62
     7
100
AcDbCircle
 10
1567.4050839192
 20
461.4187042988
 30
0.0
 40
5.000000000000428
100
AcDbArc
 50
85.1691323012
 51
177.3372882846
  0
ARC
  5
8C
330
1F
100
AcDbEntity
  8
0
  6
Continuous
 62
     7
100
AcDbCircle
 10
1253.4786563478
 20
-40.5241340493
 30
0.0
 40
909.7891990869524
100
AcDbArc
 50
8.3910984306
 51
10.1769473348
  0
ARC
  5
8D
330
1F
100
AcDbEntity
  8
0
  6
Continuous
 62
     7
100
AcDbCircle
 10
2010.9082178589
 20
114.8249789443
 30
0.0
 40
4.999999999999993
100
AcDbArc
 50
91.9433174835
 51
185.0131137556
  0
ARC
  5
8E
330
1F
100
AcDbEntity
  8
0
  6
Continuous
 62
     7
100
AcDbCircle
 10
2144.0326056044
 20
119.341929416
 30
0.0
 40
5.000000000000734
100
AcDbArc
 50
10.1769473348
 51
91.9433174835
  0
ARC
  5
8F
330
1F
100
AcDbEntity
  8
0
  6
Continuous
 62
     7
100
AcDbCircle
 10
2148.5821021962
 20
91.5111491702
 30
0.0
 40
4.999999999999915
100
AcDbArc
 50
270.0
 51
8.3910984306
  0
ARC
  5
90
330
1F
100
AcDbEntity
  8
0
  6
Continuous
 62
     7
100
AcDbCircle
 10
2012.9532906464
 20
91.5111491702
 30
0.0
 40
5.000000000000028
100
AcDbArc
 50
185.0131137556
 51
270.0
  0
ARC
  5
91
330
1F
100
AcDbEntity
  8
0
  6
Continuous
 62
     7
100
AcDbCircle
 10
1565.1992353076
 20
435.3185931651
 30
0.0
 40
31.19315882609772
100
AcDbArc
 50
66.075637153
 51
85.1691323012
  0
ARC
  5
92
330
1F
100
AcDbEntity
  8
0
  6
Continuous
 62
     7
100
AcDbCircle
 10
1492.3288083304
 20
271.0657215485
 30
0.0
 40
210.8848530196526
100
AcDbArc
 50
53.9814509129
 51
55.4762847222
  0
ARC
  5
93
330
1F
100
AcDbEntity
  8
0
  6
Continuous
 62
     7
100
AcDbCircle
 10
1365.2318974342
 20
65.0833612446
 30
0.0
 40
452.5990990687747
100
AcDbArc
 50
52.0551936867
 51
56.3022738207
  0
ARC
  5
94
330
1F
100
AcDbEntity
  8
0
  6
Continuous
 62
     7
100
AcDbCircle
 10
2009.3870176564
 20
131.1007637745
 30
0.0
 40
4.999999999999361
100
AcDbArc
 50
185.0131137556
 51
271.9433174835
  0
ARC
  5
95
330
1F
100
AcDbEntity
  8
0
  6
Continuous
 62
     7
100
AcDbCircle
 10
1253.3576052676
 20
-40.2100492115
 30
0.0
 40
919.289199086952
100
AcDbArc
 50
7.565675254
 51
10.172165846
  0
ARC
  5
96
330
1F
100
AcDbEntity
  8
0
  6
Continuous
 62
     7
100
AcDbCircle
 10
1253.3576052676
 20
201.8618698168
 30
0.0
 40
919.2891990869522
100
AcDbArc
 50
349.827946813
 51
352.434324746
  0
ARC
  5
97
330
1F
100
AcDbEntity
  8
0
  6
Continuous
 62
     7
100
AcDbCircle
 10
2159.1812562286
 20
122.3190968386
 30
0.0
 40
1.000000000000051
100
AcDbArc
 50
36.7151504806
 51
190.172165846
  0
ARC
  5
98
330
1F
100
AcDbEntity
  8
0
  6
Continuous
 62
     7
100
AcDbCircle
 10
1979.7724619533
 20
359.1556481301
 30
0.0
 40
75.14369938573313
100
AcDbArc
 50
285.6985402794
 51
23.7951618705
  0
ARC
  5
99
330
1F
100
AcDbEntity
  8
0
  6
Continuous
 62
     7
100
AcDbCircle
 10
1760.6762708347
 20
-114.2366568316
 30
0.0
 40
455.4090814644388
100
AcDbArc
 50
45.9987043868
 51
59.0614122647
  0
ARC
  5
9A
330
1F
100
AcDbEntity
  8
0
  6
Continuous
 62
     7
100
AcDbCircle
 10
1591.1447199319
 20
426.9519857203
 30
0.0
 40
24.35844569788927
100
AcDbArc
 50
186.8481408171
 51
294.3402237796
  0
ARC
  5
9B
330
1F
100
AcDbEntity
  8
0
  6
Continuous
 62
     7
100
AcDbCircle
 10
1492.3288083304
 20
271.0657215485
 30
0.0
 40
210.8848530196527
100
AcDbArc
 50
59.7826998033
 51
66.075637153
  0
ARC
  5
9C
330
1F
100
AcDbEntity
  8
0
  6
Continuous
 62
     7
100
AcDbCircle
 10
2144.0340042378
 20
140.6083608866
 30
0.0
 40
0.999999999999549
100
AcDbArc
 50
213.6556886809
 51
11.4967232581
  0
ARC
  5
9D
330
1F
100
AcDbEntity
  8
0
  6
Continuous
 62
     7
100
AcDbCircle
 10
1760.6762708347
 20
-114.2366568316
 30
0.0
 40
455.4090814644389
100
AcDbArc
 50
32.9786173395
 51
45.9987043868
  0
ARC
  5
9E
330
1F
100
AcDbEntity
  8
0
  6
Continuous
 62
     7
100
AcDbCircle
 10
1760.7973219149
 20
-114.5507416692
 30
0.0
 40
459.4090814644392
100
AcDbArc
 50
33.6556886809
 51
58.8562820368
  0
ARC
  5
9F
330
1F
100
AcDbEntity
  8
0
  6
Continuous
 62
     7
100
AcDbCircle
 10
2141.0292552862
 20
132.5656980464
 30
0.0
 40
2.000000000000343
100
AcDbArc
 50
271.9433174835
 51
32.9786173395
  0
ARC
  5
A0
330
1F
100
AcDbEntity
  8
0
  6
Continuous
 62
     7
100
AcDbCircle
 10
1998.9146968644
 20
279.5008260756
 30
0.0
 40
1.0
100
AcDbArc
 50
90.0
 51
238.8562820368
  0
ARC
  5
A1
330
1F
100
AcDbEntity
  8
0
  6
Continuous
 62
     7
100
AcDbCircle
 10
1993.7825069486
 20
274.6608590248
 30
0.0
 40
2.000000000000191
100
AcDbArc
 50
59.0614122647
 51
185.0131137556
  0
ARC
  5
A2
330
1F
100
AcDbEntity
  8
0
  6
Continuous
 62
     7
100
AcDbCircle
 10
1253.4786563478
 20
-40.5241340493
 30
0.0
 40
909.789199086952
100
AcDbArc
 50
11.4967232581
 51
14.2577687003
  0
ARC
  5
A3
330
1F
100
AcDbEntity
  8
0
  6
Continuous
 62
     7
100
AcDbCircle
 10
1253.4786563478
 20
-40.5241340493
 30
0.0
 40
909.7891990869523
100
AcDbArc
 50
14.2577687003
 51
20.662126407
  0
ARC
  5
A4
330
1F
100
AcDbEntity
  8
0
  6
Continuous
 62
     7
100
AcDbCircle
 10
1591.1447199319
 20
426.9519857203
 30
0.0
 40
24.35844569788893
100
AcDbArc
 50
306.8481408171
 51
54.3402237796
  0
ARC
  5
A5
330
1F
100
AcDbEntity
  8
0
  6
Continuous
 62
     7
100
AcDbCircle
 10
1591.1447199319
 20
426.9519857203
 30
0.0
 40
26.35844569788921
100
AcDbArc
 50
226.5512160876
 51
40.5137480834
  0
ARC
  5
A6
330
1F
100
AcDbEntity
  8
0
  6
Continuous
 62
     7
100
AcDbCircle
 10
1591.1447199319
 20
426.9519857203
 30
0.0
 40
24.35844569788971
100
AcDbArc
 50
66.8481408172
 51
174.3402237796
  0
ARC
  5
A7
330
1F
100
AcDbEntity
  8
0
  6
Continuous
 62
     7
100
AcDbCircle
 10
1591.1447199319
 20
426.9519857203
 30
0.0
 40
26.358445697889
100
AcDbArc
 50
74.7452364421
 51
168.4308202165
  0
ARC
  5
A8
330
1F
100
AcDbEntity
  8
0
  6
Continuous
 62
     7
100
AcDbCircle
 10
1601.6537097693
 20
418.9559986511
 30
0.0
 40
14.2051004014547
100
AcDbArc
 50
145.1513250599
 51
268.105714418
  0
ARC
  5
A9
330
1F
100
AcDbEntity
  8
0
  6
Continuous
 62
     7
100
AcDbCircle
 10
1592.8149529435
 20
440.0510314222
 30
0.0
 40
14.205100401448
100
AcDbArc
 50
265.1513250599
 51
28.1057144181
  0
ARC
  5
AA
330
1F
100
AcDbEntity
  8
0
  6
Continuous
 62
     7
100
AcDbCircle
 10
1578.965497083
 20
421.8489270877
 30
0.0
 40
14.20510040145506
100
AcDbArc
 50
25.1513250599
 51
148.1057144181
  0
ARC
  5
AB
330
1F
100
AcDbEntity
  8
0
  6
Continuous
 62
     7
100
AcDbCircle
 10
1918.7422933506
 20
-423.9179750484
 30
0.0
 40
245.0193420242016
100
AcDbArc
 50
140.514670441
 51
158.1532895099
  0
ARC
  5
AC
330
1F
100
AcDbEntity
  8
0
  6
Continuous
 62
     7
100
AcDbCircle
 10
1809.1020305031
 20
389.7781751262
 30
0.0
 40
3.000000000000767
100
AcDbArc
 50
270.0
 51
37.6103775661
  0
ARC
  5
AD
330
1F
100
AcDbEntity
  8
0
  6
Continuous
 62
     7
100
AcDbCircle
 10
1698.3487076964
 20
-203.0498306733
 30
0.0
 40
60.00000000000222
100
AcDbArc
 50
314.9383807852
 51
8.8005508182
  0
ARC
  5
AE
330
1F
100
AcDbEntity
  8
0
  6
Continuous
 62
     7
100
AcDbCircle
 10
1698.3487076963
 20
-203.0498306734
 30
0.0
 40
66.99999999999984
100
AcDbArc
 50
314.9383807852
 51
353.3878301025
  0
ARC
  5
AF
330
1F
100
AcDbEntity
  8
0
  6
Continuous
 62
     7
100
AcDbCircle
 10
1787.5346462441
 20
417.7735037489
 30
0.0
 40
3.000000000000524
100
AcDbArc
 50
37.6103775661
 51
163.8811537387
  0
ARC
  5
B0
330
1F
100
AcDbEntity
  8
0
  6
Continuous
 62
     7
100
AcDbCircle
 10
1592.8149529435
 20
440.0510314222
 30
0.0
 40
12.20510040144814
100
AcDbArc
 50
265.3419414543
 51
49.6222102652
  0
ARC
  5
B1
330
1F
100
AcDbEntity
  8
0
  6
Continuous
 62
     7
100
AcDbCircle
 10
1979.7724619533
 20
359.1556481301
 30
0.0
 40
71.14369938573313
100
AcDbArc
 50
278.5971853248
 51
91.3204427915
  0
ARC
  5
B2
330
1F
100
AcDbEntity
  8
0
  6
Continuous
 62
     7
100
AcDbCircle
 10
1979.7724619533
 20
359.1556481301
 30
0.0
 40
75.14369938573314
100
AcDbArc
 50
52.7661380006
 51
91.5143584319
  0
ARC
  5
B3
330
1F
100
AcDbEntity
  8
0
  6
Continuous
 62
     7
100
AcDbCircle
 10
1680.3354512843
 20
122.8387029295
 30
0.0
 40
454.5990990687735
100
AcDbArc
 50
28.2622548081
 51
35.9109981188
  0
ARC
  5
B4
330
1F
100
AcDbEntity
  8
0
  6
Continuous
 62
     7
100
AcDbCircle
 10
1578.965497083
 20
421.8489270877
 30
0.0
 40
12.20510040145489
100
AcDbArc
 50
25.3419414543
 51
169.6222102651
  0
ARC
  5
B5
330
1F
100
AcDbEntity
  8
0
  6
Continuous
 62
     7
100
AcDbCircle
 10
1601.6537097693
 20
418.9559986511
 30
0.0
 40
12.20510040145461
100
AcDbArc
 50
145.3419414543
 51
289.6222102651
  0
ARC
  5
B6
330
1F
100
AcDbEntity
  8
0
  6
Continuous
 62
     7
100
AcDbCircle
 10
1611.5638562038
 20
444.4000509202
 30
0.0
 40
0.5000000000000661
100
AcDbArc
 50
55.4762847222
 51
220.5137480834
  0
ARC
  5
B7
330
1F
100
AcDbEntity
  8
0
  6
Continuous
 62
     7
100
AcDbCircle
 10
1598.2114838728
 20
452.8640862278
 30
0.0
 40
0.500000000000244
100
AcDbArc
 50
254.7452364421
 51
59.7826998033
  0
ARC
  5
B8
330
1F
100
AcDbEntity
  8
0
  6
Continuous
 62
     7
100
AcDbCircle
 10
1564.8319500087
 20
432.3384729125
 30
0.0
 40
0.5000000000001437
100
AcDbArc
 50
185.0131137506
 51
348.4308202165
  0
ARC
  5
B9
330
1F
100
AcDbEntity
  8
0
  6
Continuous
 62
     7
100
AcDbCircle
 10
1572.3922557816
 20
406.9188187586
 30
0.0
 40
1.093790224028745
100
AcDbArc
 50
38.6695460862
 51
205.0774880293
  0
ARC
  5
BA
330
1F
100
AcDbEntity
  8
0
  6
Continuous
 62
     7
100
AcDbCircle
 10
2159.181575803
 20
39.3345048608
 30
0.0
 40
1.000000000000242
100
AcDbArc
 50
169.827946813
 51
323.2847175592
  0
LINE
  5
BB
330
1F
100
AcDbEntity
  8
0
  6
Continuous
 62
     7
100
AcDbLine
 10
2161.113163592
 20
80.8259103026
 30
0.0
 11
2161.1132537658
 21
80.8265865975
 31
0.0
  0
LINE
  5
BC
330
1F
100
AcDbEntity
  8
0
  6
Continuous
 62
     7
100
AcDbLine
 10
2161.1132537658
 20
80.8252340078
 30
0.0
 11
2161.113163592
 21
80.8259103026
 31
0.0
  0
ARC
  5
BD
330
1F
100
AcDbEntity
  8
0
  6
Continuous
 62
     7
100
AcDbCircle
 10
2154.6640396659
 20
132.9480440813
 30
0.0
 40
1.999999999999989
100
AcDbArc
 50
190.8751011317
 51
274.0705877399
  0
ARC
  5
BE
330
1F
100
AcDbEntity
  8
0
  6
Continuous
 62
     7
100
AcDbCircle
 10
2154.6642960182
 20
28.7051108705
 30
0.0
 40
2.000000000000227
100
AcDbArc
 50
85.9294811003
 51
169.1249836923
  0
ARC
  5
BF
330
1F
100
AcDbEntity
  8
0
  6
Continuous
 62
     7
100
AcDbCircle
 10
1680.3354512843
 20
38.8131176758
 30
0.0
 40
454.5990990687736
100
AcDbArc
 50
324.0890018812
 51
331.7377451919
  0
ARC
  5
C0
330
1F
100
AcDbEntity
  8
0
  6
Continuous
 62
     7
100
AcDbCircle
 10
1979.7724619533
 20
-197.5038275249
 30
0.0
 40
75.14369938573311
100
AcDbArc
 50
268.4856415681
 51
307.2338619994
  0
ARC
  5
C1
330
1F
100
AcDbEntity
  8
0
  6
Continuous
 62
     7
100
AcDbCircle
 10
1979.7724619533
 20
-197.5038275249
 30
0.0
 40
71.14369938573321
100
AcDbArc
 50
268.6795572085
 51
81.4028146752
  0
ARC
  5
C2
330
1F
100
AcDbEntity
  8
0
  6
Continuous
 62
     7
100
AcDbCircle
 10
1253.4786563478
 20
202.1759546545
 30
0.0
 40
909.7891990869513
100
AcDbArc
 50
339.337873593
 51
345.7422312997
  0
ARC
  5
C3
330
1F
100
AcDbEntity
  8
0
  6
Continuous
 62
     7
100
AcDbCircle
 10
1253.4786563478
 20
202.1759546545
 30
0.0
 40
909.7891990869513
100
AcDbArc
 50
345.7422312997
 51
348.5032767419
  0
ARC
  5
C4
330
1F
100
AcDbEntity
  8
0
  6
Continuous
 62
     7
100
AcDbCircle
 10
1993.7825069486
 20
-113.0090384195
 30
0.0
 40
2.000000000000191
100
AcDbArc
 50
174.9868862444
 51
300.9385877353
  0
ARC
  5
C5
330
1F
100
AcDbEntity
  8
0
  6
Continuous
 62
     7
100
AcDbCircle
 10
1998.9146968643
 20
-117.8490054704
 30
0.0
 40
1.000000000000014
100
AcDbArc
 50
121.1437179631
 51
270.0
  0
ARC
  5
C6
330
1F
100
AcDbEntity
  8
0
  6
Continuous
 62
     7
100
AcDbCircle
 10
2141.0292552862
 20
29.0861225589
 30
0.0
 40
2.000000000000357
100
AcDbArc
 50
327.0213826605
 51
88.0566825165
  0
ARC
  5
C7
330
1F
100
AcDbEntity
  8
0
  6
Continuous
 62
     7
100
AcDbCircle
 10
1760.7973219149
 20
276.2025622744
 30
0.0
 40
459.409081464439
100
AcDbArc
 50
301.1437179632
 51
326.3443113191
  0
ARC
  5
C8
330
1F
100
AcDbEntity
  8
0
  6
Continuous
 62
     7
100
AcDbCircle
 10
1760.6762708347
 20
275.8884774369
 30
0.0
 40
455.4090814644389
100
AcDbArc
 50
314.0012956132
 51
327.0213826605
  0
ARC
  5
C9
330
1F
100
AcDbEntity
  8
0
  6
Continuous
 62
     7
100
AcDbCircle
 10
2144.0340042378
 20
21.0434597186
 30
0.0
 40
1.000000000000945
100
AcDbArc
 50
348.5032767419
 51
146.3443113221
  0
ARC
  5
CA
330
1F
100
AcDbEntity
  8
0
  6
Continuous
 62
     7
100
AcDbCircle
 10
1760.6762708347
 20
275.8884774369
 30
0.0
 40
455.4090814644387
100
AcDbArc
 50
300.9385877353
 51
314.0012956132
  0
ARC
  5
CB
330
1F
100
AcDbEntity
  8
0
  6
Continuous
 62
     7
100
AcDbCircle
 10
1979.7724619533
 20
-197.5038275249
 30
0.0
 40
75.14369938573314
100
AcDbArc
 50
336.2048381295
 51
74.3014597206
  0
ARC
  5
CC
330
1F
100
AcDbEntity
  8
0
  6
Continuous
 62
     7
100
AcDbCircle
 10
2009.3870176564
 20
30.5510568307
 30
0.0
 40
4.999999999999386
100
AcDbArc
 50
88.0566825165
 51
174.9868862444
  0
ARC
  5
CD
330
1F
100
AcDbEntity
  8
0
  6
Continuous
 62
     7
100
AcDbCircle
 10
2012.9532906463
 20
70.1406714351
 30
0.0
 40
5.000000000000361
100
AcDbArc
 50
89.9999999998
 51
174.9868862444
  0
ARC
  5
CE
330
1F
100
AcDbEntity
  8
0
  6
Continuous
 62
     7
100
AcDbCircle
 10
2148.5821021962
 20
70.1406714351
 30
0.0
 40
5.000000000004565
100
AcDbArc
 50
351.6089015693
 51
90.0000000003
  0
ARC
  5
CF
330
1F
100
AcDbEntity
  8
0
  6
Continuous
 62
     7
100
AcDbCircle
 10
2144.0326056044
 20
42.3098911892
 30
0.0
 40
5.00000000001297
100
AcDbArc
 50
268.0566825161
 51
349.8230526652
  0
ARC
  5
D0
330
1F
100
AcDbEntity
  8
0
  6
Continuous
 62
     7
100
AcDbCircle
 10
2010.9082178589
 20
46.8268416609
 30
0.0
 40
5.000000000000084
100
AcDbArc
 50
174.9868862439
 51
268.0566825165
  0
ARC
  5
D1
330
1F
100
AcDbEntity
  8
0
  6
Continuous
 62
     7
100
AcDbCircle
 10
1253.4786563478
 20
202.1759546545
 30
0.0
 40
909.7891990869548
100
AcDbArc
 50
349.8230526652
 51
351.6089015694
  0
ARC
  5
D2
330
1F
100
AcDbEntity
  8
0
  6
Continuous
 62
     7
100
AcDbCircle
 10
1680.3354512843
 20
38.8131176758
 30
0.0
 40
454.5990990687736
100
AcDbArc
 50
310.3643576937
 51
319.3496982477
  0
ARC
  5
D3
330
1F
100
AcDbEntity
  8
0
  6
Continuous
 62
     7
100
AcDbCircle
 10
1253.3576052676
 20
201.8618698168
 30
0.0
 40
915.789199086952
100
AcDbArc
 50
335.4130848883
 51
349.1249836923
  0
ARC
  5
D4
330
1F
100
AcDbEntity
  8
0
  6
Continuous
 62
     7
100
AcDbCircle
 10
1680.4334802486
 20
38.9445625226
 30
0.0
 40
460.5990990687738
100
AcDbArc
 50
308.3794849156
 51
331.7348376804
  0
ARC
  5
D5
330
1F
100
AcDbEntity
  8
0
  6
Continuous
 62
     7
100
AcDbCircle
 10
1253.4786563478
 20
202.1759546545
 30
0.0
 40
909.7891990869523
100
AcDbArc
 50
335.4075211693
 51
338.9122959896
  0
ARC
  5
D6
330
1F
100
AcDbEntity
  8
0
  6
Continuous
 62
     7
100
AcDbCircle
 10
1591.5236038705
 20
-286.8462596011
 30
0.0
 40
1.093790224028637
100
AcDbArc
 50
154.9225119704
 51
321.3304539138
  0
ARC
  5
D7
330
1F
100
AcDbEntity
  8
0
  6
Continuous
 62
     7
100
AcDbCircle
 10
1583.9632980976
 20
-312.2659137549
 30
0.0
 40
0.4999999999997304
100
AcDbArc
 50
11.5691797835
 51
174.9868862494
  0
ARC
  5
D8
330
1F
100
AcDbEntity
  8
0
  6
Continuous
 62
     7
100
AcDbCircle
 10
1617.3428319617
 20
-332.7915270703
 30
0.0
 40
0.499999999999571
100
AcDbArc
 50
300.2173001967
 51
105.2547635579
  0
ARC
  5
D9
330
1F
100
AcDbEntity
  8
0
  6
Continuous
 62
     7
100
AcDbCircle
 10
1630.6952042928
 20
-324.3274917626
 30
0.0
 40
0.4999999999997878
100
AcDbArc
 50
139.4862519166
 51
304.5237152778
  0
ARC
  5
DA
330
1F
100
AcDbEntity
  8
0
  6
Continuous
 62
     7
100
AcDbCircle
 10
1620.7850578583
 20
-298.8834394936
 30
0.0
 40
12.2051004014545
100
AcDbArc
 50
70.3777897349
 51
214.6580585457
  0
ARC
  5
DB
330
1F
100
AcDbEntity
  8
0
  6
Continuous
 62
     7
100
AcDbCircle
 10
1598.096845172
 20
-301.7763679302
 30
0.0
 40
12.20510040145484
100
AcDbArc
 50
190.3777897349
 51
334.6580585457
  0
ARC
  5
DC
330
1F
100
AcDbEntity
  8
0
  6
Continuous
 62
     7
100
AcDbCircle
 10
1611.9463010325
 20
-319.9784722647
 30
0.0
 40
12.20510040144817
100
AcDbArc
 50
310.3777897348
 51
94.6580585457
  0
ARC
  5
DD
330
1F
100
AcDbEntity
  8
0
  6
Continuous
 62
     7
100
AcDbCircle
 10
1598.096845172
 20
-301.7763679302
 30
0.0
 40
14.20510040145464
100
AcDbArc
 50
211.894285582
 51
334.8486749401
  0
ARC
  5
DE
330
1F
100
AcDbEntity
  8
0
  6
Continuous
 62
     7
100
AcDbCircle
 10
1611.9463010325
 20
-319.9784722647
 30
0.0
 40
14.20510040144802
100
AcDbArc
 50
331.8942855819
 51
94.8486749401
  0
ARC
  5
DF
330
1F
100
AcDbEntity
  8
0
  6
Continuous
 62
     7
100
AcDbCircle
 10
1620.7850578583
 20
-298.8834394936
 30
0.0
 40
14.20510040145458
100
AcDbArc
 50
91.894285582
 51
214.8486749402
  0
ARC
  5
E0
330
1F
100
AcDbEntity
  8
0
  6
Continuous
 62
     7
100
AcDbCircle
 10
1610.2760680209
 20
-306.8794265628
 30
0.0
 40
26.35844569788944
100
AcDbArc
 50
191.5691797835
 51
285.2547635579
  0
ARC
  5
E1
330
1F
100
AcDbEntity
  8
0
  6
Continuous
 62
     7
100
AcDbCircle
 10
1610.2760680209
 20
-306.8794265628
 30
0.0
 40
24.35844569788913
100
AcDbArc
 50
185.6597762204
 51
293.1518591828
  0
ARC
  5
E2
330
1F
100
AcDbEntity
  8
0
  6
Continuous
 62
     7
100
AcDbCircle
 10
1610.2760680209
 20
-306.8794265628
 30
0.0
 40
26.35844569788933
100
AcDbArc
 50
319.4862519166
 51
133.4487839124
  0
ARC
  5
E3
330
1F
100
AcDbEntity
  8
0
  6
Continuous
 62
     7
100
AcDbCircle
 10
1610.2760680209
 20
-306.8794265628
 30
0.0
 40
24.35844569788916
100
AcDbArc
 50
305.6597762204
 51
53.1518591829
  0
ARC
  5
E4
330
1F
100
AcDbEntity
  8
0
  6
Continuous
 62
     7
100
AcDbCircle
 10
1511.4601564194
 20
-150.9931623909
 30
0.0
 40
210.884853019652
100
AcDbArc
 50
293.924362847
 51
300.2173001967
  0
ARC
  5
E5
330
1F
100
AcDbEntity
  8
0
  6
Continuous
 62
     7
100
AcDbCircle
 10
1610.2760680209
 20
-306.8794265628
 30
0.0
 40
24.35844569788923
100
AcDbArc
 50
65.6597762204
 51
173.1518591829
  0
ARC
  5
E6
330
1F
100
AcDbEntity
  8
0
  6
Continuous
 62
     7
100
AcDbCircle
 10
1384.3632455232
 20
54.9891979129
 30
0.0
 40
452.5990990687742
100
AcDbArc
 50
303.6977261793
 51
307.9448063133
  0
ARC
  5
E7
330
1F
100
AcDbEntity
  8
0
  6
Continuous
 62
     7
100
AcDbCircle
 10
1511.4601564194
 20
-150.9931623909
 30
0.0
 40
210.8848530196522
100
AcDbArc
 50
304.5237152778
 51
306.0185490871
  0
ARC
  5
E8
330
1F
100
AcDbEntity
  8
0
  6
Continuous
 62
     7
100
AcDbCircle
 10
1584.3305833966
 20
-315.2460340076
 30
0.0
 40
31.19315882609676
100
AcDbArc
 50
274.8308676988
 51
293.924362847
  0
ARC
  5
E9
330
1F
100
AcDbEntity
  8
0
  6
Continuous
 62
     7
100
AcDbCircle
 10
1586.5364320082
 20
-341.3461451413
 30
0.0
 40
4.999999999999501
100
AcDbArc
 50
182.6627117154
 51
274.8308676988
  0
ARC
  5
EA
330
1F
100
AcDbEntity
  8
0
  6
Continuous
 62
     7
100
AcDbCircle
 10
1658.3006382154
 20
-338.0086379108
 30
0.0
 40
76.84177229903118
100
AcDbArc
 50
176.8193648042
 51
182.6627117151
  0
ARC
  5
EB
330
1F
100
AcDbEntity
  8
0
  6
Continuous
 62
     7
100
AcDbCircle
 10
1584.3305833966
 20
-315.2460340076
 30
0.0
 40
39.1931588260974
100
AcDbArc
 50
265.4340710345
 51
293.924362847
  0
ARC
  5
EC
330
1F
100
AcDbEntity
  8
0
  6
Continuous
 62
     7
100
AcDbCircle
 10
1582.9811340649
 20
-346.1769271025
 30
0.0
 40
8.32826724751814
100
AcDbArc
 50
200.9391764075
 51
257.7253890389
  0
ARC
  5
ED
330
1F
100
AcDbEntity
  8
0
  6
Continuous
 62
     7
100
AcDbCircle
 10
1658.3006382154
 20
-338.0086379108
 30
0.0
 40
83.84177229903142
100
AcDbArc
 50
176.7411941399
 51
187.6386153889
  0
ARC
  5
EE
330
1F
100
AcDbEntity
  8
0
  6
Continuous
 62
     7
100
AcDbCircle
 10
1511.4601564194
 20
-150.9931623909
 30
0.0
 40
218.8848530196526
100
AcDbArc
 50
293.924362847
 51
305.9759227274
  0
ARC
  5
EF
330
1F
100
AcDbEntity
  8
0
  6
Continuous
 62
     7
100
AcDbCircle
 10
1384.3632455232
 20
54.9891979129
 30
0.0
 40
460.5990990687732
100
AcDbArc
 50
303.7177843075
 51
308.3794849156
  0
ARC
  5
F0
330
1F
100
AcDbEntity
  8
0
  6
Continuous
 62
     7
100
AcDbCircle
 10
1814.2002295712
 20
399.5461973541
 30
0.0
 40
3.000000000000767
100
AcDbArc
 50
217.6103775661
 51
0.0
  0
ARC
  5
F1
330
1F
100
AcDbEntity
  8
0
  6
Continuous
 62
     7
100
AcDbCircle
 10
1803.2002295712
 20
302.3109835114
 30
0.0
 40
3.000000000000114
100
AcDbArc
 50
180.0
 51
270.0
  0
ARC
  5
F2
330
1F
100
AcDbEntity
  8
0
  6
Continuous
 62
     7
100
AcDbCircle
 10
1803.2002295712
 20
343.7781751262
 30
0.0
 40
3.000000000000114
100
AcDbArc
 50
90.0
 51
180.0
  0
ARC
  5
F3
330
1F
100
AcDbEntity
  8
0
  6
Continuous
 62
     7
100
AcDbCircle
 10
2048.0017977645
 20
191.0009449453
 30
0.0
 40
347.8015681933302
100
AcDbArc
 50
143.8723356071
 51
186.9277007585
  0
ARC
  5
F4
330
1F
100
AcDbEntity
  8
0
  6
Continuous
 62
     7
100
AcDbCircle
 10
1864.0773185217
 20
467.7781751262
 30
0.0
 40
4.0
100
AcDbArc
 50
319.344440825
 51
90.0
  0
ARC
  5
F5
330
1F
100
AcDbEntity
  8
0
  6
Continuous
 62
     7
100
AcDbCircle
 10
1718.6183076435
 20
431.4352092601
 30
0.0
 40
60.00000000000031
100
AcDbArc
 50
323.8723356071
 51
343.8811537387
  0
ARC
  5
F6
330
1F
100
AcDbEntity
  8
0
  6
Continuous
 62
     7
100
AcDbCircle
 10
1918.7422933507
 20
-423.9179750483
 30
0.0
 40
252.0193420242053
100
AcDbArc
 50
134.9383807852
 51
162.0451784205
  0
ARC
  5
F7
330
1F
100
AcDbEntity
  8
0
  6
Continuous
 62
     7
100
AcDbCircle
 10
2048.0017977645
 20
191.0009449451
 30
0.0
 40
340.8015681933288
100
AcDbArc
 50
144.8202719453
 51
177.0753347413
  0
ARC
  5
F8
330
1F
100
AcDbEntity
  8
0
  6
Continuous
 62
     7
100
AcDbCircle
 10
1936.5724233939
 20
209.8709379482
 30
0.0
 40
8.000000000000103
100
AcDbArc
 50
273.2044762906
 51
3.2044762906
  0
ARC
  5
F9
330
1F
100
AcDbEntity
  8
0
  6
Continuous
 62
     7
100
AcDbCircle
 10
1568.1914293173
 20
-336.6023442323
 30
0.0
 40
375.7995580797747
100
AcDbArc
 50
358.5321647559
 51
14.7697797696
  0
ARC
  5
FA
330
1F
100
AcDbEntity
  8
0
  6
Continuous
 62
     7
100
AcDbCircle
 10
1718.6183076435
 20
431.4352092599
 30
0.0
 40
67.00000000000264
100
AcDbArc
 50
325.8676964552
 51
343.8811537387
  0
ARC
  5
FB
330
1F
100
AcDbEntity
  8
0
  6
Continuous
 62
     7
100
AcDbCircle
 10
1768.1655124119
 20
333.9820571192
 30
0.0
 40
169.3243631403153
100
AcDbArc
 50
5.3483839266
 51
7.7372179606
  0
ARC
  5
FC
330
1F
100
AcDbEntity
  8
0
  6
Continuous
 62
     7
100
AcDbCircle
 10
1859.9500349762
 20
-537.961418697
 30
0.0
 40
90.3059355698844
100
AcDbArc
 50
131.3113862128
 51
156.0670069747
  0
ARC
  5
FD
330
1F
100
AcDbEntity
  8
0
  6
Continuous
 62
     7
100
AcDbCircle
 10
2019.0729083131
 20
44.0183456972
 30
0.0
 40
86.67295333151345
100
AcDbArc
 50
135.2978423563
 51
177.4457251265
  0
ARC
  5
FE
330
1F
100
AcDbEntity
  8
0
  6
Continuous
 62
     7
100
AcDbCircle
 10
2019.072908313
 20
44.018345697
 30
0.0
 40
93.67295333151263
100
AcDbArc
 50
141.5451432717
 51
177.5079525628
  0
ARC
  5
FF
330
1F
100
AcDbEntity
  8
0
  6
Continuous
 62
     7
100
AcDbCircle
 10
1833.8607793602
 20
-289.6329159073
 30
0.0
 40
52.09581799330525
100
AcDbArc
 50
291.1218621252
 51
338.4395987786
  0
ARC
  5
100
330
1F
100
AcDbEntity
  8
0
  6
Continuous
 62
     7
100
AcDbCircle
 10
1833.8607793602
 20
-289.6329159073
 30
0.0
 40
45.09581799332227
100
AcDbArc
 50
270.0
 51
330.9247419046
  0
ARC
  5
101
330
1F
100
AcDbEntity
  8
0
  6
Continuous
 62
     7
100
AcDbCircle
 10
2216.5761672806
 20
465.5145336172
 30
0.0
 40
252.019342024201
100
AcDbArc
 50
252.0451784205
 51
276.2212297181
  0
ARC
  5
102
330
1F
100
AcDbEntity
  8
0
  6
Continuous
 62
     7
100
AcDbCircle
 10
1568.1914293173
 20
-336.6023442325
 30
0.0
 40
368.7995580797753
100
AcDbArc
 50
1.0121962732
 51
14.1605047776
  0
ARC
  5
103
330
1F
100
AcDbEntity
  8
0
  6
Continuous
 62
     7
100
AcDbCircle
 10
2216.5761672806
 20
465.5145336172
 30
0.0
 40
245.0193420242015
100
AcDbArc
 50
254.1840802131
 51
274.1066631284
  0
ARC
  5
104
330
1F
100
AcDbEntity
  8
0
  6
Continuous
 62
     7
100
AcDbCircle
 10
1829.383272406
 20
73.2881155426
 30
0.0
 40
126.4152685631223
100
AcDbArc
 50
46.9559323836
 51
86.6089554074
  0
ARC
  5
105
330
1F
100
AcDbEntity
  8
0
  6
Continuous
 62
     7
100
AcDbCircle
 10
1708.4541215631
 20
-332.1904161804
 30
0.0
 40
67.48693884211828
100
AcDbArc
 50
20.2996438857
 51
71.7045289409
  0
ARC
  5
106
330
1F
100
AcDbEntity
  8
0
  6
Continuous
 62
     7
100
AcDbCircle
 10
1820.2002295712
 20
-289.6329159073
 30
0.0
 40
45.09581799333138
100
AcDbArc
 50
209.0752580955
 51
270.0
  0
ARC
  5
107
330
1F
100
AcDbEntity
  8
0
  6
Continuous
 62
     7
100
AcDbCircle
 10
1934.3449692676
 20
125.9130856963
 30
0.0
 40
3.999999999999532
100
AcDbArc
 50
332.7809982269
 51
26.6279543543
  0
ARC
  5
108
330
1F
100
AcDbEntity
  8
0
  6
Continuous
 62
     7
100
AcDbCircle
 10
1829.383272406
 20
73.2881155426
 30
0.0
 40
126.4152685631223
100
AcDbArc
 50
31.1673763098
 51
46.9559323836
  0
ARC
  5
109
330
1F
100
AcDbEntity
  8
0
  6
Continuous
 62
     7
100
AcDbCircle
 10
1829.383272406
 20
73.2881155426
 30
0.0
 40
121.4152685631225
100
AcDbArc
 50
26.6279543543
 51
86.4691353305
  0
ARC
  5
10A
330
1F
100
AcDbEntity
  8
0
  6
Continuous
 62
     7
100
AcDbCircle
 10
1717.8350330811
 20
-494.9729986384
 30
0.0
 40
36.6315571245476
100
AcDbArc
 50
348.0
 51
42.7027664468
  0
ARC
  5
10B
330
1F
100
AcDbEntity
  8
0
  6
Continuous
 62
     7
100
AcDbCircle
 10
1820.2002295712
 20
-289.6329159073
 30
0.0
 40
52.09581799330465
100
AcDbArc
 50
201.5604012214
 51
248.8781378748
  0
ARC
  5
10C
330
1F
100
AcDbEntity
  8
0
  6
Continuous
 62
     7
100
AcDbCircle
 10
1708.4541215631
 20
-332.1904161804
 30
0.0
 40
72.48693884211852
100
AcDbArc
 50
24.5625828162
 51
70.1309443653
  0
ARC
  5
10D
330
1F
100
AcDbEntity
  8
0
  6
Continuous
 62
     7
100
AcDbCircle
 10
1918.7422933506
 20
-423.9179750484
 30
0.0
 40
245.0193420242014
100
AcDbArc
 50
134.9383807852
 51
139.2621245096
  0
ARC
  5
10E
330
1F
100
AcDbEntity
  8
0
  6
Continuous
 62
     7
100
AcDbCircle
 10
1829.9317120743
 20
179.6179924928
 30
0.0
 40
121.4152685631219
100
AcDbArc
 50
273.2715994743
 51
332.7809982269
  0
ARC
  5
10F
330
1F
100
AcDbEntity
  8
0
  6
Continuous
 62
     7
100
AcDbCircle
 10
1829.9317120743
 20
179.6179924928
 30
0.0
 40
126.4152685631211
100
AcDbArc
 50
273.1420680126
 51
326.5972808265
  0
ARC
  5
110
330
1F
100
AcDbEntity
  8
0
  6
Continuous
 62
     7
100
AcDbCircle
 10
1890.8145614843
 20
-179.1922465086
 30
0.0
 40
129.8096034993518
100
AcDbArc
 50
125.7511955101
 51
176.7714043084
  0
ARC
  5
111
330
1F
100
AcDbEntity
  8
0
  6
Continuous
 62
     7
100
AcDbCircle
 10
1778.0195866353
 20
-300.3957958379
 30
0.0
 40
3.999999999999415
100
AcDbArc
 50
204.5625828162
 51
300.7332823935
  0
ARC
  5
112
330
1F
100
AcDbEntity
  8
0
  6
Continuous
 62
     7
100
AcDbCircle
 10
2028.2696122469
 20
-215.3040134065
 30
0.0
 40
100.0000000000005
100
AcDbArc
 50
179.0793394151
 51
194.7697797696
  0
ARC
  5
113
330
1F
100
AcDbEntity
  8
0
  6
Continuous
 62
     7
100
AcDbCircle
 10
1939.6400348861
 20
107.2712115186
 30
0.0
 40
5.000000000000902
100
AcDbArc
 50
48.8680201338
 51
146.5972808265
  0
ARC
  5
114
330
1F
100
AcDbEntity
  8
0
  6
Continuous
 62
     7
100
AcDbCircle
 10
1890.8145614843
 20
-179.1922465086
 30
0.0
 40
124.8096034993514
100
AcDbArc
 50
126.1437422186
 51
233.8562577814
  0
ARC
  5
115
330
1F
100
AcDbEntity
  8
0
  6
Continuous
 62
     7
100
AcDbCircle
 10
1568.1914293173
 20
-336.6023442325
 30
0.0
 40
373.799558079775
100
AcDbArc
 50
19.1629343398
 51
44.0484233629
  0
ARC
  5
116
330
1F
100
AcDbEntity
  8
0
  6
Continuous
 62
     7
100
AcDbCircle
 10
1890.8145614843
 20
-179.1922465086
 30
0.0
 40
129.8096034993519
100
AcDbArc
 50
194.0767648855
 51
233.6458148101
  0
ARC
  5
117
330
1F
100
AcDbEntity
  8
0
  6
Continuous
 62
     7
100
AcDbCircle
 10
1824.129296857
 20
179.6179924928
 30
0.0
 40
126.4152685631224
100
AcDbArc
 50
210.500923706
 51
263.6771367289
  0
ARC
  5
118
330
1F
100
AcDbEntity
  8
0
  6
Continuous
 62
     7
100
AcDbCircle
 10
1824.129296857
 20
179.6179924928
 30
0.0
 40
121.4152685631223
100
AcDbArc
 50
207.2190017731
 51
266.7284005257
  0
ARC
  5
119
330
1F
100
AcDbEntity
  8
0
  6
Continuous
 62
     7
100
AcDbCircle
 10
1810.0969345937
 20
52.9777797943
 30
0.0
 40
1.000000000000107
100
AcDbArc
 50
283.3218412211
 51
83.6771367289
  0
ARC
  5
11A
330
1F
100
AcDbEntity
  8
0
  6
Continuous
 62
     7
100
AcDbCircle
 10
1834.6443151747
 20
-50.6884186196
 30
0.0
 40
105.5328803093157
100
AcDbArc
 50
103.3218412211
 51
159.3962200147
  0
ARC
  5
11B
330
1F
100
AcDbEntity
  8
0
  6
Continuous
 62
     7
100
AcDbCircle
 10
1834.6443151747
 20
-50.6884186196
 30
0.0
 40
100.5328803093159
100
AcDbArc
 50
99.9923229697
 51
164.8561422951
  0
ARC
  5
11C
330
1F
100
AcDbEntity
  8
0
  6
Continuous
 62
     7
100
AcDbCircle
 10
1755.9718065415
 20
-85.9761622536
 30
0.0
 40
64.23386007991098
100
AcDbArc
 50
17.5961438248
 51
106.6170283298
  0
ARC
  5
11D
330
1F
100
AcDbEntity
  8
0
  6
Continuous
 62
     7
100
AcDbCircle
 10
1941.8022771882
 20
105.3828410077
 30
0.0
 40
4.999999999999996
100
AcDbArc
 50
321.5451432717
 51
48.8680201338
  0
ARC
  5
11E
330
1F
100
AcDbEntity
  8
0
  6
Continuous
 62
     7
100
AcDbCircle
 10
2078.949250017
 20
-399.4342790149
 30
0.0
 40
221.5297161467746
100
AcDbArc
 50
136.4483265563
 51
155.1131064241
  0
ARC
  5
11F
330
1F
100
AcDbEntity
  8
0
  6
Continuous
 62
     7
100
AcDbCircle
 10
2078.949250017
 20
-399.4342790149
 30
0.0
 40
216.5297161467747
100
AcDbArc
 50
135.0205465368
 51
155.2485954529
  0
ARC
  5
120
330
1F
100
AcDbEntity
  8
0
  6
Continuous
 62
     7
100
AcDbCircle
 10
1568.1914293173
 20
-336.6023442325
 30
0.0
 40
368.7995580797752
100
AcDbArc
 50
16.4416615081
 51
43.2394650909
  0
ARC
  5
121
330
1F
100
AcDbEntity
  8
0
  6
Continuous
 62
     7
100
AcDbCircle
 10
1755.9718065415
 20
-85.9761622536
 30
0.0
 40
60.23386007991129
100
AcDbArc
 50
11.6201313829
 51
107.1196646025
  0
ARC
  5
122
330
1F
100
AcDbEntity
  8
0
  6
Continuous
 62
     7
100
AcDbCircle
 10
1907.5235651267
 20
-236.4632963818
 30
0.0
 40
15.00000000000081
100
AcDbArc
 50
316.4483265563
 51
16.4416615081
  0
ARC
  5
123
330
1F
100
AcDbEntity
  8
0
  6
Continuous
 62
     7
100
AcDbCircle
 10
1833.5171233134
 20
-523.0352812879
 30
0.0
 40
64.37711702677936
100
AcDbArc
 50
142.1834082848
 51
158.0456701998
  0
ARC
  5
124
330
1F
100
AcDbEntity
  8
0
  6
Continuous
 62
     7
100
AcDbCircle
 10
1768.1655124119
 20
333.9820571194
 30
0.0
 40
176.3243631403156
100
AcDbArc
 50
5.3053920006
 51
58.1626078558
  0
ARC
  5
125
330
1F
100
AcDbEntity
  8
0
  6
Continuous
 62
     7
100
AcDbCircle
 10
1780.7203074773
 20
-482.0341171138
 30
0.0
 40
2.470530846415461
100
AcDbArc
 50
321.7572147912
 51
89.9154896438
  0
ARC
  5
126
330
1F
100
AcDbEntity
  8
0
  6
Continuous
 62
     7
100
AcDbCircle
 10
1760.1898687938
 20
-532.7154822918
 30
0.0
 40
2.519878442181843
100
AcDbArc
 50
258.0
 51
341.9948213695
  0
ARC
  5
127
330
1F
100
AcDbEntity
  8
0
  6
Continuous
 62
     7
100
AcDbCircle
 10
1754.5570411081
 20
-531.519139076
 30
0.0
 40
2.518947960167983
100
AcDbArc
 50
167.2922081564
 51
258.0
  0
ARC
  5
128
330
1F
100
AcDbEntity
  8
0
  6
Continuous
 62
     7
100
AcDbCircle
 10
1759.4892520084
 20
-482.3366977896
 30
0.0
 40
2.467730359040647
100
AcDbArc
 50
88.5415900983
 51
200.4601448554
  0
ARC
  5
129
330
1F
100
AcDbEntity
  8
0
  6
Continuous
 62
     7
100
AcDbCircle
 10
1715.8608512864
 20
-495.4154349482
 30
0.0
 40
43.08450073831026
100
AcDbArc
 50
345.1806002044
 51
16.4715256929
  0
ARC
  5
12A
330
1F
100
AcDbEntity
  8
0
  6
Continuous
 62
     7
100
AcDbCircle
 10
1757.3823559406
 20
-541.3586094039
 30
0.0
 40
2.518163735872303
100
AcDbArc
 50
341.9948213695
 51
78.0
  0
ARC
  5
12B
330
1F
100
AcDbEntity
  8
0
  6
Continuous
 62
     7
100
AcDbCircle
 10
1752.5899629828
 20
-540.2916621748
 30
0.0
 40
2.471094550402944
100
AcDbArc
 50
77.3315609722
 51
168.1829040972
  0
ARC
  5
12C
330
1F
100
AcDbEntity
  8
0
  6
Continuous
 62
     7
100
AcDbCircle
 10
1741.3806194408
 20
-590.7483809457
 30
0.0
 40
2.46974825275681
100
AcDbArc
 50
168.3186177617
 51
341.9948213695
  0
ARC
  5
12D
330
1F
100
AcDbEntity
  8
0
  6
Continuous
 62
     7
100
AcDbCircle
 10
1824.6777365254
 20
73.2881155426
 30
0.0
 40
121.4152685631221
100
AcDbArc
 50
94.4769831997
 51
153.3720456457
  0
ARC
  5
12E
330
1F
100
AcDbEntity
  8
0
  6
Continuous
 62
     7
100
AcDbCircle
 10
1928.9346873304
 20
-330.2287339006
 30
0.0
 40
8.00000000000071
100
AcDbArc
 50
270.0
 51
1.0121962732
  0
ARC
  5
12F
330
1F
100
AcDbEntity
  8
0
  6
Continuous
 62
     7
100
AcDbCircle
 10
1824.6777365254
 20
73.2881155426
 30
0.0
 40
126.4152685631219
100
AcDbArc
 50
133.0440676164
 51
148.8326236902
  0
ARC
  5
130
330
1F
100
AcDbEntity
  8
0
  6
Continuous
 62
     7
100
AcDbCircle
 10
1719.7160396637
 20
125.9130856963
 30
0.0
 40
4.000000000000228
100
AcDbArc
 50
153.3720456457
 51
207.2190017731
  0
ARC
  5
131
330
1F
100
AcDbEntity
  8
0
  6
Continuous
 62
     7
100
AcDbCircle
 10
1592.1567831961
 20
299.1765155996
 30
0.0
 40
203.0075985252303
100
AcDbArc
 50
323.8836541886
 51
337.8447494568
  0
ARC
  5
132
330
1F
100
AcDbEntity
  8
0
  6
Continuous
 62
     7
100
AcDbCircle
 10
1824.6777365254
 20
73.2881155426
 30
0.0
 40
126.4152685631226
100
AcDbArc
 50
98.6561313536
 51
122.8252429858
  0
ARC
  5
133
330
1F
100
AcDbEntity
  8
0
  6
Continuous
 62
     7
100
AcDbCircle
 10
1592.1567831961
 20
299.1765155996
 30
0.0
 40
198.0075985252309
100
AcDbArc
 50
317.6064782829
 51
334.1855827951
  0
ARC
  5
134
330
1F
100
AcDbEntity
  8
0
  6
Continuous
 62
     7
100
AcDbCircle
 10
1592.1567831961
 20
299.1765155996
 30
0.0
 40
203.0075985252302
100
AcDbArc
 50
15.8683510476
 51
22.3153628084
  0
ARC
  5
135
330
1F
100
AcDbEntity
  8
0
  6
Continuous
 62
     7
100
AcDbCircle
 10
1816.5002295712
 20
163.6660127225
 30
0.0
 40
0.7000000000001592
100
AcDbArc
 50
0.0
 51
90.0
  0
ARC
  5
136
330
1F
100
AcDbEntity
  8
0
  6
Continuous
 62
     7
100
AcDbCircle
 10
1815.9002295712
 20
165.0660127225
 30
0.0
 40
0.7000000000002728
100
AcDbArc
 50
180.0
 51
270.0
  0
ARC
  5
137
330
1F
100
AcDbEntity
  8
0
  6
Continuous
 62
     7
100
AcDbCircle
 10
1789.4370520855
 20
218.8476133515
 30
0.0
 40
9.999999999999773
100
AcDbArc
 50
90.0
 51
157.8447494568
  0
ARC
  5
138
330
1F
100
AcDbEntity
  8
0
  6
Continuous
 62
     7
100
AcDbCircle
 10
1720.0360621218
 20
273.635226858
 30
0.0
 40
78.86327838204205
100
AcDbArc
 50
269.7180560146
 51
309.6940173781
  0
ARC
  5
139
330
1F
100
AcDbEntity
  8
0
  6
Continuous
 62
     7
100
AcDbCircle
 10
1720.0360621218
 20
273.635226858
 30
0.0
 40
71.86327838204232
100
AcDbArc
 50
269.063417854
 51
324.0734346864
  0
ARC
  5
13A
330
1F
100
AcDbEntity
  8
0
  6
Continuous
 62
     7
100
AcDbCircle
 10
1592.1567831961
 20
299.1765155996
 30
0.0
 40
198.0075985252303
100
AcDbArc
 50
340.0048261064
 51
26.443225737
  0
ARC
  5
13B
330
1F
100
AcDbEntity
  8
0
  6
Continuous
 62
     7
100
AcDbCircle
 10
1805.2002295712
 20
201.2292678749
 30
0.0
 40
3.000000000000227
100
AcDbArc
 50
278.6561313536
 51
359.9999999991
  0
ARC
  5
13C
330
1F
100
AcDbEntity
  8
0
  6
Continuous
 62
     7
100
AcDbCircle
 10
1805.2002295712
 20
225.8476133515
 30
0.0
 40
3.000000000000227
100
AcDbArc
 50
0.0
 51
90.0
  0
ARC
  5
13D
330
1F
100
AcDbEntity
  8
0
  6
Continuous
 62
     7
100
AcDbCircle
 10
1803.2002295712
 20
235.8476133515
 30
0.0
 40
3.000000000000114
100
AcDbArc
 50
180.0
 51
270.0
  0
ARC
  5
13E
330
1F
100
AcDbEntity
  8
0
  6
Continuous
 62
     7
100
AcDbCircle
 10
1768.1655124119
 20
333.9820571192
 30
0.0
 40
169.3243631403141
100
AcDbArc
 50
9.4483825213
 51
16.396060271
  0
ARC
  5
13F
330
1F
100
AcDbEntity
  8
0
  6
Continuous
 62
     7
100
AcDbCircle
 10
1768.1655124119
 20
333.9820571192
 30
0.0
 40
169.3243631403149
100
AcDbArc
 50
18.1680187256
 51
25.4625536358
  0
ARC
  5
140
330
1F
100
AcDbEntity
  8
0
  6
Continuous
 62
     7
100
AcDbCircle
 10
1803.2002295712
 20
292.3109835114
 30
0.0
 40
3.000000000000114
100
AcDbArc
 50
90.0
 51
180.0
  0
ARC
  5
141
330
1F
100
AcDbEntity
  8
0
  6
Continuous
 62
     7
100
AcDbCircle
 10
1791.275838
 20
355.7781751262
 30
0.0
 40
4.000000000000261
100
AcDbArc
 50
195.8683510476
 51
270.0
  0
ARC
  5
142
330
1F
100
AcDbEntity
  8
0
  6
Continuous
 62
     7
100
AcDbCircle
 10
1783.6611564277
 20
377.7781751262
 30
0.0
 40
4.000000000000502
100
AcDbArc
 50
90.0
 51
202.3153628084
  0
ARC
  5
143
330
1F
100
AcDbEntity
  8
0
  6
Continuous
 62
     7
100
AcDbCircle
 10
1592.1567831961
 20
299.1765155996
 30
0.0
 40
203.0075985252303
100
AcDbArc
 50
26.2637461332
 51
26.5166545462
  0
ARC
  5
144
330
1F
100
AcDbEntity
  8
0
  6
Continuous
 62
     7
100
AcDbCircle
 10
1777.7942843082
 20
390.7781751262
 30
0.0
 40
4.000000000000174
100
AcDbArc
 50
206.2637461332
 51
270.0
  0
ARC
  5
145
330
1F
100
AcDbEntity
  8
0
  6
Continuous
 62
     7
100
AcDbCircle
 10
1777.3881396637
 20
391.5966996956
 30
0.0
 40
3.99999999999996
100
AcDbArc
 50
145.8676964552
 51
206.5166545462
  0
ARC
  5
146
330
1F
100
AcDbEntity
  8
0
  6
Continuous
 62
     7
100
AcDbCircle
 10
1803.7784230484
 20
466.7781751262
 30
0.0
 40
5.000000000000331
100
AcDbArc
 50
90.0
 51
163.8811537387
  0
ARC
  5
147
330
1F
100
AcDbEntity
  8
0
  6
Continuous
 62
     7
100
AcDbCircle
 10
1800.8532553566
 20
456.6561911353
 30
0.0
 40
5.000000000000438
100
AcDbArc
 50
163.8811537387
 51
220.655559175
  0
ARC
  5
148
330
1F
100
AcDbEntity
  8
0
  6
Continuous
 62
     7
100
AcDbCircle
 10
1768.1655124119
 20
333.9820571192
 30
0.0
 40
169.324363140315
100
AcDbArc
 50
27.3516376974
 51
51.5129545032
  0
ARC
  5
149
330
1F
100
AcDbEntity
  8
0
  6
Continuous
 62
     7
100
AcDbCircle
 10
1930.3456256661
 20
285.3109835114
 30
0.0
 40
10.00000000000147
100
AcDbArc
 50
3.2044762906
 51
90.0
  0
ARC
  5
14A
330
1F
100
AcDbEntity
  8
0
  6
Continuous
 62
     7
100
AcDbCircle
 10
1928.9459494069
 20
310.3109835114
 30
0.0
 40
10.00000000000123
100
AcDbArc
 50
270.0
 51
3.2044762906
  0
ARC
  5
14B
330
1F
100
AcDbEntity
  8
0
  6
Continuous
 62
     7
100
AcDbCircle
 10
1713.6363136729
 20
208.0834831898
 30
0.0
 40
6.000000000000042
100
AcDbArc
 50
177.0753347413
 51
266.7955237094
  0
ARC
  5
14C
330
1F
100
AcDbEntity
  8
0
  6
Continuous
 62
     7
100
AcDbCircle
 10
2250.0557852747
 20
460.6350575198
 30
0.0
 40
4.000000000000213
100
AcDbArc
 50
322.5849666431
 51
87.2541961389
  0
ARC
  5
14D
330
1F
100
AcDbEntity
  8
0
  6
Continuous
 62
     7
100
AcDbCircle
 10
2258.2679672231
 20
451.6199596647
 30
0.0
 40
1.999999999999951
100
AcDbArc
 50
354.3467139799
 51
142.5849666431
  0
ARC
  5
14E
330
1F
100
AcDbEntity
  8
0
  6
Continuous
 62
     7
100
AcDbCircle
 10
2150.8869261329
 20
299.8446761951
 30
0.0
 40
4.0
100
AcDbArc
 50
85.0
 51
180.0
  0
ARC
  5
14F
330
1F
100
AcDbEntity
  8
0
  6
Continuous
 62
     7
100
AcDbCircle
 10
2148.8869261329
 20
325.0918892768
 30
0.0
 40
2.000000000001819
100
AcDbArc
 50
180.0
 51
322.5849666431
  0
ARC
  5
150
330
1F
100
AcDbEntity
  8
0
  6
Continuous
 62
     7
100
AcDbCircle
 10
2154.2266977312
 20
315.6136014422
 30
0.0
 40
2.000000000000055
100
AcDbArc
 50
142.5849666431
 51
265.0
  0
ARC
  5
151
330
1F
100
AcDbEntity
  8
0
  6
Continuous
 62
     7
100
AcDbCircle
 10
2150.8869261329
 20
233.6196289142
 30
0.0
 40
4.000000000000509
100
AcDbArc
 50
180.0
 51
254.1840802131
  0
ARC
  5
152
330
1F
100
AcDbEntity
  8
0
  6
Continuous
 62
     7
100
AcDbCircle
 10
2150.8869261329
 20
465.3911999047
 30
0.0
 40
4.000000000000136
100
AcDbArc
 50
87.2541961389
 51
180.0
  0
ARC
  5
153
330
1F
100
AcDbEntity
  8
0
  6
Continuous
 62
     7
100
AcDbCircle
 10
2233.8363914112
 20
225.1140180339
 30
0.0
 40
4.000000000000393
100
AcDbArc
 50
274.1066631284
 51
354.3467139799
  0
ARC
  5
154
330
1F
100
AcDbEntity
  8
0
  6
Continuous
 62
     7
100
AcDbCircle
 10
2240.4582400139
 20
292.0082016534
 30
0.0
 40
4.000000000000097
100
AcDbArc
 50
354.3467139799
 51
85.0
  0
ARC
  5
155
330
1F
100
AcDbEntity
  8
0
  6
Continuous
 62
     7
100
AcDbCircle
 10
2242.2315071156
 20
309.9218179604
 30
0.0
 40
4.000000000000052
100
AcDbArc
 50
265.0
 51
354.3467139799
  0
ARC
  5
156
330
1F
100
AcDbEntity
  8
0
  6
Continuous
 62
     7
100
AcDbCircle
 10
1695.0322952457
 20
-334.2287339006
 30
0.0
 40
4.000000000000641
100
AcDbArc
 50
158.1532895099
 51
270.0
  0
ARC
  5
157
330
1F
100
AcDbEntity
  8
0
  6
Continuous
 62
     7
100
AcDbCircle
 10
1937.6978587504
 20
-537.5063777134
 30
0.0
 40
90.30593556988457
100
AcDbArc
 50
131.3113862128
 51
156.0670069747
  0
ARC
  5
158
330
1F
100
AcDbEntity
  8
0
  6
Continuous
 62
     7
100
AcDbCircle
 10
1795.5828568552
 20
-494.5179576547
 30
0.0
 40
36.63155712454778
100
AcDbArc
 50
348.0
 51
42.7027664468
  0
ARC
  5
159
330
1F
100
AcDbEntity
  8
0
  6
Continuous
 62
     7
100
AcDbCircle
 10
1911.2649470875
 20
-522.5802403043
 30
0.0
 40
64.37711702677919
100
AcDbArc
 50
142.1834082848
 51
158.0456701998
  0
ARC
  5
15A
330
1F
100
AcDbEntity
  8
0
  6
Continuous
 62
     7
100
AcDbCircle
 10
1858.4681312514
 20
-481.5790761301
 30
0.0
 40
2.470530846415607
100
AcDbArc
 50
321.7572147912
 51
89.9154896438
  0
ARC
  5
15B
330
1F
100
AcDbEntity
  8
0
  6
Continuous
 62
     7
100
AcDbCircle
 10
1837.9376925679
 20
-532.2604413082
 30
0.0
 40
2.519878442181843
100
AcDbArc
 50
258.0
 51
341.9948213695
  0
ARC
  5
15C
330
1F
100
AcDbEntity
  8
0
  6
Continuous
 62
     7
100
AcDbCircle
 10
1832.3048648822
 20
-531.0640980924
 30
0.0
 40
2.518947960167649
100
AcDbArc
 50
167.2922081594
 51
258.0
  0
ARC
  5
15D
330
1F
100
AcDbEntity
  8
0
  6
Continuous
 62
     7
100
AcDbCircle
 10
1837.2370757825
 20
-481.8816568059
 30
0.0
 40
2.467730359040607
100
AcDbArc
 50
88.5415900983
 51
200.4601448554
  0
ARC
  5
15E
330
1F
100
AcDbEntity
  8
0
  6
Continuous
 62
     7
100
AcDbCircle
 10
1793.6086750605
 20
-494.9603939645
 30
0.0
 40
43.0845007383102
100
AcDbArc
 50
345.1806002044
 51
16.4715256929
  0
ARC
  5
15F
330
1F
100
AcDbEntity
  8
0
  6
Continuous
 62
     7
100
AcDbCircle
 10
1835.1301797147
 20
-540.9035684202
 30
0.0
 40
2.518163735872391
100
AcDbArc
 50
341.9948213695
 51
78.0
  0
ARC
  5
160
330
1F
100
AcDbEntity
  8
0
  6
Continuous
 62
     7
100
AcDbCircle
 10
1830.337786757
 20
-539.8366211911
 30
0.0
 40
2.471094550403113
100
AcDbArc
 50
77.3315609722
 51
168.1829040976
  0
ARC
  5
161
330
1F
100
AcDbEntity
  8
0
  6
Continuous
 62
     7
100
AcDbCircle
 10
1819.128443215
 20
-590.293339962
 30
0.0
 40
2.469748252756789
100
AcDbArc
 50
168.3186177623
 51
341.9948213695
  0
ARC
  5
162
330
1F
100
AcDbEntity
  8
0
  6
Continuous
 62
     7
100
AcDbCircle
 10
1699.7833436531
 20
-606.7274642691
 30
0.0
 40
247.5623445564875
100
AcDbArc
 50
333.6024359295
 51
356.9067230549
  0
ARC
  5
163
330
1F
100
AcDbEntity
  8
0
  6
Continuous
 62
     7
100
AcDbCircle
 10
2008.4847160923
 20
-673.7350611118
 30
0.0
 40
40.00000000000064
100
AcDbArc
 50
271.9981111234
 51
323.7917527306
  0
ARC
  5
164
330
1F
100
AcDbEntity
  8
0
  6
Continuous
 62
     7
100
AcDbCircle
 10
2043.9849921091
 20
-625.2447316342
 30
0.0
 40
40.00000000000089
100
AcDbArc
 50
323.7917527306
 51
0.0
  0
ARC
  5
165
330
1F
100
AcDbEntity
  8
0
  6
Continuous
 62
     7
100
AcDbCircle
 10
1699.7833436531
 20
-606.7274642691
 30
0.0
 40
253.5623445564875
100
AcDbArc
 50
335.8532637632
 51
355.6213450292
  0
ARC
  5
166
330
1F
100
AcDbEntity
  8
0
  6
Continuous
 62
     7
100
AcDbCircle
 10
2008.4847160923
 20
-673.7350611118
 30
0.0
 40
34.00000000000076
100
AcDbArc
 50
271.9981111234
 51
323.7917527306
  0
ARC
  5
167
330
1F
100
AcDbEntity
  8
0
  6
Continuous
 62
     7
100
AcDbCircle
 10
2043.9849921091
 20
-625.2447316342
 30
0.0
 40
34.00000000000035
100
AcDbArc
 50
323.7917527306
 51
358.5816094036
  0
ARC
  5
168
330
1F
100
AcDbEntity
  8
0
  6
Continuous
 62
     7
100
AcDbCircle
 10
1699.7833436531
 20
-633.4452069116
 30
0.0
 40
247.5623445564876
100
AcDbArc
 50
3.0932769451
 51
26.3975640705
  0
ARC
  5
169
330
1F
100
AcDbEntity
  8
0
  6
Continuous
 62
     7
100
AcDbCircle
 10
2043.9849921091
 20
-614.9279395465
 30
0.0
 40
34.0000000000004
100
AcDbArc
 50
1.4183905964
 51
36.2082472694
  0
ARC
  5
16A
330
1F
100
AcDbEntity
  8
0
  6
Continuous
 62
     7
100
AcDbCircle
 10
2008.4847160923
 20
-566.4376100689
 30
0.0
 40
34.00000000000019
100
AcDbArc
 50
36.2082472694
 51
88.0018888766
  0
ARC
  5
16B
330
1F
100
AcDbEntity
  8
0
  6
Continuous
 62
     7
100
AcDbCircle
 10
1699.7833436531
 20
-633.4452069116
 30
0.0
 40
253.5623445564872
100
AcDbArc
 50
4.3786549708
 51
24.1467362368
  0
ARC
  5
16C
330
1F
100
AcDbEntity
  8
0
  6
Continuous
 62
     7
100
AcDbCircle
 10
2043.9849921091
 20
-614.9279395465
 30
0.0
 40
40.00000000000102
100
AcDbArc
 50
0.0
 51
36.2082472694
  0
ARC
  5
16D
330
1F
100
AcDbEntity
  8
0
  6
Continuous
 62
     7
100
AcDbCircle
 10
2008.4847160923
 20
-566.4376100689
 30
0.0
 40
40.00000000000077
100
AcDbArc
 50
36.2082472694
 51
88.0018888766
  0
ARC
  5
16E
330
1F
100
AcDbEntity
  8
0
  6
Continuous
 62
     7
100
AcDbCircle
 10
1849.8635496116
 20
-601.929073304
 30
0.0
 40
247.5623445564865
100
AcDbArc
 50
333.6024359295
 51
356.9067230549
  0
ARC
  5
16F
330
1F
100
AcDbEntity
  8
0
  6
Continuous
 62
     7
100
AcDbCircle
 10
2158.5649220508
 20
-668.9366701467
 30
0.0
 40
40.00000000000048
100
AcDbArc
 50
271.9981111234
 51
323.7917527306
  0
ARC
  5
170
330
1F
100
AcDbEntity
  8
0
  6
Continuous
 62
     7
100
AcDbCircle
 10
2194.0651980675
 20
-620.4463406692
 30
0.0
 40
40.00000000000045
100
AcDbArc
 50
323.7917527306
 51
0.0
  0
ARC
  5
171
330
1F
100
AcDbEntity
  8
0
  6
Continuous
 62
     7
100
AcDbCircle
 10
1849.8635496116
 20
-601.929073304
 30
0.0
 40
253.5623445564871
100
AcDbArc
 50
335.8532637632
 51
355.6213450292
  0
ARC
  5
172
330
1F
100
AcDbEntity
  8
0
  6
Continuous
 62
     7
100
AcDbCircle
 10
2158.5649220508
 20
-668.9366701467
 30
0.0
 40
34.00000000000076
100
AcDbArc
 50
271.9981111234
 51
323.7917527306
  0
ARC
  5
173
330
1F
100
AcDbEntity
  8
0
  6
Continuous
 62
     7
100
AcDbCircle
 10
2194.0651980675
 20
-620.4463406692
 30
0.0
 40
34.00000000000081
100
AcDbArc
 50
323.7917527306
 51
358.5816094036
  0
ARC
  5
174
330
1F
100
AcDbEntity
  8
0
  6
Continuous
 62
     7
100
AcDbCircle
 10
1849.8635496116
 20
-628.6468159465
 30
0.0
 40
247.5623445564863
100
AcDbArc
 50
3.0932769451
 51
26.3975640705
  0
ARC
  5
175
330
1F
100
AcDbEntity
  8
0
  6
Continuous
 62
     7
100
AcDbCircle
 10
2194.0651980675
 20
-610.1295485814
 30
0.0
 40
34.00000000000056
100
AcDbArc
 50
1.4183905964
 51
36.2082472694
  0
ARC
  5
176
330
1F
100
AcDbEntity
  8
0
  6
Continuous
 62
     7
100
AcDbCircle
 10
2158.5649220508
 20
-561.6392191039
 30
0.0
 40
34.00000000000056
100
AcDbArc
 50
36.2082472694
 51
88.0018888766
  0
ARC
  5
177
330
1F
100
AcDbEntity
  8
0
  6
Continuous
 62
     7
100
AcDbCircle
 10
1849.8635496116
 20
-628.6468159465
 30
0.0
 40
253.5623445564867
100
AcDbArc
 50
4.3786549708
 51
24.1467362368
  0
ARC
  5
178
330
1F
100
AcDbEntity
  8
0
  6
Continuous
 62
     7
100
AcDbCircle
 10
2194.0651980675
 20
-610.1295485814
 30
0.0
 40
40.00000000000045
100
AcDbArc
 50
0.0
 51
36.2082472694
  0
ARC
  5
179
330
1F
100
AcDbEntity
  8
0
  6
Continuous
 62
     7
100
AcDbCircle
 10
2158.5649220508
 20
-561.6392191039
 30
0.0
 40
40.00000000000026
100
AcDbArc
 50
36.2082472694
 51
88.0018888766
  0
ARC
  5
17A
330
1F
100
AcDbEntity
  8
0
  6
Continuous
 62
     7
100
AcDbCircle
 10
1612.6076071421
 20
-542.7708887777
 30
0.0
 40
87.7503783148973
100
AcDbArc
 50
37.9225441771
 51
67.5607650785
  0
ARC
  5
17B
330
1F
100
AcDbEntity
  8
0
  6
Continuous
 62
     7
100
AcDbCircle
 10
1615.5659528672
 20
-535.6073313797
 30
0.0
 40
80.00000000000024
100
AcDbArc
 50
67.5607650785
 51
88.2955793927
  0
ARC
  5
17C
330
1F
100
AcDbEntity
  8
0
  6
Continuous
 62
     7
100
AcDbCircle
 10
1612.6076071421
 20
-542.7708887777
 30
0.0
 40
83.75037831489733
100
AcDbArc
 50
43.7656469179
 51
67.5607650785
  0
ARC
  5
17D
330
1F
100
AcDbEntity
  8
0
  6
Continuous
 62
     7
100
AcDbCircle
 10
1615.5659528672
 20
-535.6073313797
 30
0.0
 40
76.00000000000023
100
AcDbArc
 50
67.5607650785
 51
82.8032078414
  0
ARC
  5
17E
330
1F
100
AcDbEntity
  8
0
  6
Continuous
 62
     7
100
AcDbCircle
 10
1615.5659528672
 20
-535.6073313797
 30
0.0
 40
75.99999999999993
100
AcDbArc
 50
85.9363050826
 51
88.2955793927
  0
ARC
  5
17F
330
1F
100
AcDbEntity
  8
0
  6
Continuous
 62
     7
100
AcDbCircle
 10
1590.7924953251
 20
-487.6787655738
 30
0.0
 40
87.75037831489709
100
AcDbArc
 50
37.9225441771
 51
67.5607650785
  0
ARC
  5
180
330
1F
100
AcDbEntity
  8
0
  6
Continuous
 62
     7
100
AcDbCircle
 10
1593.7508410502
 20
-480.5152081758
 30
0.0
 40
80.00000000000001
100
AcDbArc
 50
67.5607650785
 51
88.2955793927
  0
ARC
  5
181
330
1F
100
AcDbEntity
  8
0
  6
Continuous
 62
     7
100
AcDbCircle
 10
1590.7924953251
 20
-487.6787655738
 30
0.0
 40
83.75037831489698
100
AcDbArc
 50
43.7656469179
 51
67.5607650785
  0
ARC
  5
182
330
1F
100
AcDbEntity
  8
0
  6
Continuous
 62
     7
100
AcDbCircle
 10
1593.7508410502
 20
-480.5152081758
 30
0.0
 40
76.00000000000003
100
AcDbArc
 50
67.5607650785
 51
82.8032078414
  0
ARC
  5
183
330
1F
100
AcDbEntity
  8
0
  6
Continuous
 62
     7
100
AcDbCircle
 10
1593.7508410502
 20
-480.5152081758
 30
0.0
 40
75.99999999999999
100
AcDbArc
 50
85.9363050826
 51
88.2955793927
  0
ARC
  5
184
330
1F
100
AcDbEntity
  8
0
  6
Continuous
 62
     7
100
AcDbCircle
 10
2002.152301825
 20
-577.4962673892
 30
0.0
 40
41.1528763938123
100
AcDbArc
 50
117.6844490602
 51
168.303635006
  0
ARC
  5
185
330
1F
100
AcDbEntity
  8
0
  6
Continuous
 62
     7
100
AcDbCircle
 10
2002.152301825
 20
-577.4962673892
 30
0.0
 40
38.15287639381198
100
AcDbArc
 50
125.43400601
 51
167.9171919805
  0
ARC
  5
186
330
1F
100
AcDbEntity
  8
0
  6
Continuous
 62
     7
100
AcDbCircle
 10
2028.7898759114
 20
-576.2867608838
 30
0.0
 40
41.1528763938123
100
AcDbArc
 50
117.6844490602
 51
168.303635006
  0
ARC
  5
187
330
1F
100
AcDbEntity
  8
0
  6
Continuous
 62
     7
100
AcDbCircle
 10
2028.7898759114
 20
-576.2867608838
 30
0.0
 40
38.15287639381261
100
AcDbArc
 50
125.43400601
 51
167.9171919805
  0
ARC
  5
188
330
1F
100
AcDbEntity
  8
0
  6
Continuous
 62
     7
100
AcDbCircle
 10
1637.5439189232
 20
-649.9355209728
 30
0.0
 40
87.7503783148972
100
AcDbArc
 50
37.9225441771
 51
67.5607650785
  0
ARC
  5
189
330
1F
100
AcDbEntity
  8
0
  6
Continuous
 62
     7
100
AcDbCircle
 10
1640.5022646482
 20
-642.7719635748
 30
0.0
 40
80.00000000000001
100
AcDbArc
 50
67.5607650785
 51
88.2955793927
  0
ARC
  5
18A
330
1F
100
AcDbEntity
  8
0
  6
Continuous
 62
     7
100
AcDbCircle
 10
1637.5439189232
 20
-649.9355209728
 30
0.0
 40
83.75037831489645
100
AcDbArc
 50
43.7656469179
 51
67.5607650785
  0
ARC
  5
18B
330
1F
100
AcDbEntity
  8
0
  6
Continuous
 62
     7
100
AcDbCircle
 10
1640.5022646482
 20
-642.7719635748
 30
0.0
 40
76.00000000000021
100
AcDbArc
 50
67.5607650785
 51
82.8032078414
  0
ARC
  5
18C
330
1F
100
AcDbEntity
  8
0
  6
Continuous
 62
     7
100
AcDbCircle
 10
1640.5022646482
 20
-642.7719635748
 30
0.0
 40
76.00000000000006
100
AcDbArc
 50
85.9363050826
 51
88.2955793927
  0
ARC
  5
18D
330
1F
100
AcDbEntity
  8
0
  6
Continuous
 62
     7
100
AcDbCircle
 10
1615.7288071061
 20
-594.8433977689
 30
0.0
 40
87.75037831489746
100
AcDbArc
 50
37.9225441771
 51
67.5607650785
  0
ARC
  5
18E
330
1F
100
AcDbEntity
  8
0
  6
Continuous
 62
     7
100
AcDbCircle
 10
1618.6871528312
 20
-587.6798403709
 30
0.0
 40
80.00000000000024
100
AcDbArc
 50
67.5607650785
 51
88.2955793927
  0
ARC
  5
18F
330
1F
100
AcDbEntity
  8
0
  6
Continuous
 62
     7
100
AcDbCircle
 10
1615.7288071061
 20
-594.8433977689
 30
0.0
 40
83.75037831489739
100
AcDbArc
 50
43.7656469179
 51
67.5607650785
  0
ARC
  5
190
330
1F
100
AcDbEntity
  8
0
  6
Continuous
 62
     7
100
AcDbCircle
 10
1618.6871528312
 20
-587.6798403709
 30
0.0
 40
76.00000000000034
100
AcDbArc
 50
67.5607650785
 51
82.8032078414
  0
ARC
  5
191
330
1F
100
AcDbEntity
  8
0
  6
Continuous
 62
     7
100
AcDbCircle
 10
1618.6871528312
 20
-587.6798403709
 30
0.0
 40
75.99999999999993
100
AcDbArc
 50
85.9363050826
 51
88.2955793927
  0
ARC
  5
192
330
1F
100
AcDbEntity
  8
0
  6
Continuous
 62
     7
100
AcDbCircle
 10
2002.3615011229
 20
-670.6920485497
 30
0.0
 40
41.1528763938124
100
AcDbArc
 50
117.6844490602
 51
168.303635006
  0
ARC
  5
193
330
1F
100
AcDbEntity
  8
0
  6
Continuous
 62
     7
100
AcDbCircle
 10
2002.3615011229
 20
-670.6920485497
 30
0.0
 40
38.15287639381254
100
AcDbArc
 50
125.43400601
 51
167.9171919805
  0
ARC
  5
194
330
1F
100
AcDbEntity
  8
0
  6
Continuous
 62
     7
100
AcDbCircle
 10
2028.9990752094
 20
-669.4825420442
 30
0.0
 40
41.1528763938123
100
AcDbArc
 50
117.6844490602
 51
168.303635006
  0
ARC
  5
195
330
1F
100
AcDbEntity
  8
0
  6
Continuous
 62
     7
100
AcDbCircle
 10
2028.9990752094
 20
-669.4825420442
 30
0.0
 40
38.15287639381248
100
AcDbArc
 50
125.43400601
 51
167.9171919805
  0
ARC
  5
196
330
1F
100
AcDbEntity
  8
0
  6
Continuous
 62
     7
100
AcDbCircle
 10
2380.4682452644
 20
-355.5411383478
 30
0.0
 40
180.7700000000003
100
AcDbArc
 50
143.0119362819
 51
167.8458689955
  0
ARC
  5
197
330
1F
100
AcDbEntity
  8
0
  6
Continuous
 62
     7
100
AcDbCircle
 10
2598.3130991912
 20
-422.1769548374
 30
0.0
 40
413.1433349735339
100
AcDbArc
 50
161.4047880955
 51
172.805227928
  0
ARC
  5
198
330
1F
100
AcDbEntity
  8
0
  6
Continuous
 62
     7
100
AcDbCircle
 10
2424.5556007432
 20
-378.8349321392
 30
0.0
 40
235.0730162732227
100
AcDbArc
 50
144.7402133779
 51
157.910260422
  0
ARC
  5
199
330
1F
100
AcDbEntity
  8
0
  6
Continuous
 62
     7
100
AcDbCircle
 10
2380.4682452644
 20
-465.3263912178
 30
0.0
 40
180.7700000000006
100
AcDbArc
 50
192.1541310045
 51
216.9635340039
  0
ARC
  5
19A
330
1F
100
AcDbEntity
  8
0
  6
Continuous
 62
     7
100
AcDbCircle
 10
2424.5556007432
 20
-442.0325974265
 30
0.0
 40
235.0730162732225
100
AcDbArc
 50
202.089739578
 51
215.2426825547
  0
ARC
  5
19B
330
1F
100
AcDbEntity
  8
0
  6
Continuous
 62
     7
100
AcDbCircle
 10
2598.3130991912
 20
-398.6905747283
 30
0.0
 40
413.1433349735317
100
AcDbArc
 50
187.194772072
 51
198.5952119045
  0
ARC
  5
19C
330
1F
100
AcDbEntity
  8
0
  6
Continuous
 62
     7
100
AcDbCircle
 10
2185.8810415333
 20
-378.4378652722
 30
0.0
 40
2.000000000000148
100
AcDbArc
 50
268.0923925279
 51
356.1599053511
  0
ARC
  5
19D
330
1F
100
AcDbEntity
  8
0
  6
Continuous
 62
     7
100
AcDbCircle
 10
2185.8810412392
 20
-442.4296599126
 30
0.0
 40
2.000000000000046
100
AcDbArc
 50
3.8400946489
 51
91.9073347535
  0
ARC
  5
19E
330
1F
100
AcDbEntity
  8
0
  6
Continuous
 62
     7
100
AcDbCircle
 10
2185.0134228506
 20
-388.4144303527
 30
0.0
 40
3.0
100
AcDbArc
 50
88.092528228
 51
138.4009878531
  0
ARC
  5
19F
330
1F
100
AcDbEntity
  8
0
  6
Continuous
 62
     7
100
AcDbCircle
 10
2185.0134225349
 20
-432.4529310351
 30
0.0
 40
3.000000000000029
100
AcDbArc
 50
221.5990063252
 51
271.9074640351
  0
ARC
  5
1A0
330
1F
100
AcDbEntity
  8
0
  6
Continuous
 62
     7
100
AcDbCircle
 10
2185.8114674243
 20
-386.9401767683
 30
0.0
 40
1.499999999999999
100
AcDbArc
 50
356.1599053511
 51
88.092528228
  0
ARC
  5
1A1
330
1F
100
AcDbEntity
  8
0
  6
Continuous
 62
     7
100
AcDbCircle
 10
2185.8114561669
 20
-433.9271850851
 30
0.0
 40
1.500000000000014
100
AcDbArc
 50
271.9074640351
 51
3.8400946489
  0
ARC
  5
1A2
330
1F
100
AcDbEntity
  8
0
  6
Continuous
 62
     7
100
AcDbCircle
 10
2169.8479535056
 20
-80.4142601963
 30
0.0
 40
211.9019030447194
100
AcDbArc
 50
64.4882623717
 51
94.07058774
  0
ARC
  5
1A3
330
1F
100
AcDbEntity
  8
0
  6
Continuous
 62
     7
100
AcDbCircle
 10
2345.2337676696
 20
-99.4217371278
 30
0.0
 40
231.096343765198
100
AcDbArc
 50
129.6483593574
 51
143.2847175592
  0
ARC
  5
1A4
330
1F
100
AcDbEntity
  8
0
  6
Continuous
 62
     7
100
AcDbCircle
 10
2345.2337676696
 20
-99.4217371278
 30
0.0
 40
227.0963437651982
100
AcDbArc
 50
129.2231793785
 51
141.4725436059
  0
ARC
  5
1A5
330
1F
100
AcDbEntity
  8
0
  6
Continuous
 62
     7
100
AcDbCircle
 10
2352.2208762833
 20
-108.0262778583
 30
0.0
 40
241.8540075847355
100
AcDbArc
 50
117.4834172245
 51
127.0297208938
  0
ARC
  5
1A6
330
1F
100
AcDbEntity
  8
0
  6
Continuous
 62
     7
100
AcDbCircle
 10
2352.2208762833
 20
-108.0262778583
 30
0.0
 40
237.8540075847353
100
AcDbArc
 50
117.6631247304
 51
126.4738003878
  0
ARC
  5
1A7
330
1F
100
AcDbEntity
  8
0
  6
Continuous
 62
     7
100
AcDbCircle
 10
2169.8479535056
 20
-80.4142601963
 30
0.0
 40
204.9019030447191
100
AcDbArc
 50
69.9032508129
 51
89.9792674856
  0
ARC
  5
1A8
330
1F
100
AcDbEntity
  8
0
  6
Continuous
 62
     7
100
AcDbCircle
 10
2169.8479535056
 20
242.0674333913
 30
0.0
 40
204.901903044719
100
AcDbArc
 50
270.0207325144
 51
290.0967491871
  0
ARC
  5
1A9
330
1F
100
AcDbEntity
  8
0
  6
Continuous
 62
     7
100
AcDbCircle
 10
2169.8479535056
 20
242.0674333913
 30
0.0
 40
211.9019030447197
100
AcDbArc
 50
265.9294811003
 51
295.5117376283
  0
ARC
  5
1AA
330
1F
100
AcDbEntity
  8
0
  6
Continuous
 62
     7
100
AcDbCircle
 10
2345.2337676696
 20
261.0749103228
 30
0.0
 40
231.0963437651979
100
AcDbArc
 50
216.7151504806
 51
230.3516406426
  0
ARC
  5
1AB
330
1F
100
AcDbEntity
  8
0
  6
Continuous
 62
     7
100
AcDbCircle
 10
2345.2337676696
 20
261.0749103228
 30
0.0
 40
227.096343765198
100
AcDbArc
 50
218.5274563941
 51
230.7768206215
  0
ARC
  5
1AC
330
1F
100
AcDbEntity
  8
0
  6
Continuous
 62
     7
100
AcDbCircle
 10
2352.2208762833
 20
269.6794510533
 30
0.0
 40
237.8540075847356
100
AcDbArc
 50
233.5261996122
 51
242.3368752696
  0
ARC
  5
1AD
330
1F
100
AcDbEntity
  8
0
  6
Continuous
 62
     7
100
AcDbCircle
 10
2352.2208762833
 20
269.6794510533
 30
0.0
 40
241.8540075847355
100
AcDbArc
 50
232.9702791062
 51
242.5165827755
  0
ARC
  5
1AE
330
1F
100
AcDbEntity
  8
0
  6
Continuous
 62
     7
100
AcDbCircle
 10
2212.6107030672
 20
80.8265865975
 30
0.0
 40
2.999999999999809
100
AcDbArc
 50
126.4738003878
 51
233.5261996122
  0
ARC
  5
1AF
330
1F
100
AcDbEntity
  8
0
  6
Continuous
 62
     7
100
AcDbCircle
 10
2195.8629540599
 20
80.8265865975
 30
0.0
 40
3.000000000000104
100
AcDbArc
 50
309.6483593574
 51
50.3516406426
  0
ARC
  5
1B0
330
1F
100
AcDbEntity
  8
0
  6
Continuous
 62
     7
100
AcDbCircle
 10
2204.1604099641
 20
88.2446862673
 30
0.0
 40
4.000000000000133
100
AcDbArc
 50
230.7768206215
 51
307.0297208938
  0
ARC
  5
1B1
330
1F
100
AcDbEntity
  8
0
  6
Continuous
 62
     7
100
AcDbCircle
 10
2204.1604099641
 20
73.4084869277
 30
0.0
 40
4.000000000000133
100
AcDbArc
 50
52.9702791062
 51
129.2231793785
  0
ARC
  5
1B2
330
1F
100
AcDbEntity
  8
0
  6
Continuous
 62
     7
100
AcDbCircle
 10
2244.1132537658
 20
98.2107964079
 30
0.0
 40
5.0
100
AcDbArc
 50
0.0
 51
117.6631247304
  0
ARC
  5
1B3
330
1F
100
AcDbEntity
  8
0
  6
Continuous
 62
     7
100
AcDbCircle
 10
2244.1132537658
 20
63.4423767871
 30
0.0
 40
5.000000000000227
100
AcDbArc
 50
242.3368752696
 51
0.0
  0
ARC
  5
1B4
330
1F
100
AcDbEntity
  8
0
  6
Continuous
 62
     7
100
AcDbCircle
 10
2239.2227420427
 20
109.1945928895
 30
0.0
 40
3.000000000000085
100
AcDbArc
 50
297.4834172245
 51
69.9032508129
  0
ARC
  5
1B5
330
1F
100
AcDbEntity
  8
0
  6
Continuous
 62
     7
100
AcDbCircle
 10
2239.2227420427
 20
52.4585803055
 30
0.0
 40
3.000000000000085
100
AcDbArc
 50
290.0967491871
 51
62.5165827755
  0
ARC
  5
1B6
330
1F
100
AcDbEntity
  8
0
  6
Continuous
 62
     7
100
AcDbCircle
 10
2169.9210118365
 20
40.1655435646
 30
0.0
 40
3.000000000000224
100
AcDbArc
 50
141.4725436059
 51
270.0207325144
  0
ARC
  5
1B7
330
1F
100
AcDbEntity
  8
0
  6
Continuous
 62
     7
100
AcDbCircle
 10
2169.9210118365
 20
121.4876296303
 30
0.0
 40
3.000000000000122
100
AcDbArc
 50
89.9792674856
 51
218.5274563941
  0
LINE
  5
1B8
330
1F
100
AcDbEntity
  8
0
  6
Continuous
 62
     7
100
AcDbLine
 10
2185.8144749926
 20
-440.4307679858
 30
0.0
 11
1742.1344793228
 21
-455.2060100278
 31
0.0
  0
LINE
  5
1B9
330
1F
100
AcDbEntity
  8
0
  6
Continuous
 62
     7
100
AcDbLine
 10
1738.20762978
 20
-410.4399252456
 30
0.0
 11
1738.2069707403
 21
-410.4337647828
 31
0.0
  0
LINE
  5
1BA
330
1F
100
AcDbEntity
  8
0
  6
Continuous
 62
     7
100
AcDbLine
 10
1547.9918002849
 20
-634.7350611118
 30
0.0
 11
1529.7643288974
 21
-634.7350611118
 31
0.0
  0
LINE
  5
1BB
330
1F
100
AcDbEntity
  8
0
  6
Continuous
 62
     7
100
AcDbLine
 10
1738.2070359327
 20
-410.4331553865
 30
0.0
 11
1738.2069707403
 21
-410.4337647828
 31
0.0
  0
LINE
  5
1BC
330
1F
100
AcDbEntity
  8
0
  6
Continuous
 62
     7
100
AcDbLine
 10
2178.3937442616
 20
-385.1923055205
 30
0.0
 11
2097.7714381826
 21
-382.5072628427
 31
0.0
  0
LINE
  5
1BD
330
1F
100
AcDbEntity
  8
0
  6
Continuous
 62
     7
100
AcDbLine
 10
2185.8144657722
 20
-380.4367568821
 30
0.0
 11
1742.1345463189
 21
-365.6594031916
 31
0.0
  0
LINE
  5
1BE
330
1F
100
AcDbEntity
  8
0
  6
Continuous
 62
     7
100
AcDbLine
 10
2178.3937627202
 20
-435.6750543337
 30
0.0
 11
2097.7714450973
 21
-438.3600864969
 31
0.0
  0
LINE
  5
1BF
330
1F
100
AcDbEntity
  8
0
  6
Continuous
 62
     7
100
AcDbLine
 10
2185.8613842347
 20
-435.4263539175
 30
0.0
 11
2185.1132786703
 21
-435.4512686999
 31
0.0
  0
LINE
  5
1C0
330
1F
100
AcDbEntity
  8
0
  6
Continuous
 62
     7
100
AcDbLine
 10
1750.6207026659
 20
-383.8675468061
 30
0.0
 11
1750.6207026659
 21
-383.3520700363
 31
0.0
  0
LINE
  5
1C1
330
1F
100
AcDbEntity
  8
0
  6
Continuous
 62
     7
100
AcDbLine
 10
2243.7378866113
 20
-533.0728210262
 30
0.0
 11
2243.7378866113
 21
-579.7872936799
 31
0.0
  0
LINE
  5
1C2
330
1F
100
AcDbEntity
  8
0
  6
Continuous
 62
     7
100
AcDbLine
 10
2185.8613956944
 20
-385.4410079426
 30
0.0
 11
2185.1132793909
 21
-385.4160927014
 31
0.0
  0
LINE
  5
1C3
330
1F
100
AcDbEntity
  8
0
  6
Continuous
 62
     7
100
AcDbLine
 10
2187.3080996942
 20
-387.0406349621
 30
0.0
 11
2185.7378866109
 21
-410.4337647828
 31
0.0
  0
LINE
  5
1C4
330
1F
100
AcDbEntity
  8
0
  6
Continuous
 62
     7
100
AcDbLine
 10
2187.3080884368
 20
-433.8267268912
 30
0.0
 11
2185.7378866109
 21
-410.4337647828
 31
0.0
  0
LINE
  5
1C5
330
1F
100
AcDbEntity
  8
0
  6
Continuous
 62
     7
100
AcDbLine
 10
1794.6120865231
 20
-395.8675468061
 30
0.0
 11
1762.6207026659
 21
-395.8675468061
 31
0.0
  0
LINE
  5
1C6
330
1F
100
AcDbEntity
  8
0
  6
Continuous
 62
     7
100
AcDbLine
 10
2060.7086627298
 20
-439.5944191936
 30
0.0
 11
1976.1740152532
 21
-442.4097469351
 31
0.0
  0
LINE
  5
1C7
330
1F
100
AcDbEntity
  8
0
  6
Continuous
 62
     7
100
AcDbLine
 10
1793.371190914
 20
-415.4337647828
 30
0.0
 11
1788.2951564904
 21
-415.4337647828
 31
0.0
  0
LINE
  5
1C8
330
1F
100
AcDbEntity
  8
0
  6
Continuous
 62
     7
100
AcDbLine
 10
1750.6207026659
 20
-437.5152849486
 30
0.0
 11
1750.6207026659
 21
-427.4337647828
 31
0.0
  0
LINE
  5
1C9
330
1F
100
AcDbEntity
  8
0
  6
Continuous
 62
     7
100
AcDbLine
 10
1788.2951564904
 20
-415.4337647828
 30
0.0
 11
1788.2951564904
 21
-403.4337647828
 31
0.0
  0
LINE
  5
1CA
330
1F
100
AcDbEntity
  8
0
  6
Continuous
 62
     7
100
AcDbLine
 10
1768.7951564904
 20
-415.4337647828
 30
0.0
 11
1768.7951564904
 21
-403.4337647828
 31
0.0
  0
LINE
  5
1CB
330
1F
100
AcDbEntity
  8
0
  6
Continuous
 62
     7
100
AcDbLine
 10
1788.2951564904
 20
-403.4337647828
 30
0.0
 11
1768.7951564904
 21
-403.4337647828
 31
0.0
  0
LINE
  5
1CC
330
1F
100
AcDbEntity
  8
0
  6
Continuous
 62
     7
100
AcDbLine
 10
1803.2069705443
 20
-372.6971003854
 30
0.0
 11
1763.0201287304
 21
-371.3587194278
 31
0.0
  0
LINE
  5
1CD
330
1F
100
AcDbEntity
  8
0
  6
Continuous
 62
     7
100
AcDbLine
 10
1940.7086593385
 20
-443.5908792075
 30
0.0
 11
1837.4852806085
 21
-447.0286133246
 31
0.0
  0
LINE
  5
1CE
330
1F
100
AcDbEntity
  8
0
  6
Continuous
 62
     7
100
AcDbLine
 10
1940.7086504235
 20
-377.2764488306
 30
0.0
 11
1837.4852693135
 21
-373.83870068
 31
0.0
  0
LINE
  5
1CF
330
1F
100
AcDbEntity
  8
0
  6
Continuous
 62
     7
100
AcDbLine
 10
1803.2069723002
 20
-448.1702540659
 30
0.0
 11
1763.0201288721
 21
-449.5086355524
 31
0.0
  0
LINE
  5
1D0
330
1F
100
AcDbEntity
  8
0
  6
Continuous
 62
     7
100
AcDbLine
 10
2060.7086503783
 20
-381.2729249542
 30
0.0
 11
1976.174003334
 21
-378.4575857993
 31
0.0
  0
LINE
  5
1D1
330
1F
100
AcDbEntity
  8
0
  6
Continuous
 62
     7
100
AcDbLine
 10
1768.7951564904
 20
-415.4337647828
 30
0.0
 11
1762.6207026659
 21
-415.4337647828
 31
0.0
  0
LINE
  5
1D2
330
1F
100
AcDbEntity
  8
0
  6
Continuous
 62
     7
100
AcDbLine
 10
2243.7378866112
 20
-287.794708539
 30
0.0
 11
2243.7378866112
 21
-241.0532090087
 31
0.0
  0
LINE
  5
1D3
330
1F
100
AcDbEntity
  8
0
  6
Continuous
 62
     7
100
AcDbLine
 10
2249.1132537658
 20
63.4423767871
 30
0.0
 11
2249.1132537658
 21
98.2107964079
 31
0.0
  0
LINE
  5
1D4
330
1F
100
AcDbEntity
  8
0
  6
Continuous
 62
     7
100
AcDbLine
 10
1758.7422933506
 20
-628.7350611118
 30
0.0
 11
1718.753311124
 21
-683.7350611118
 31
0.0
  0
LINE
  5
1D5
330
1F
100
AcDbEntity
  8
0
  6
Continuous
 62
     7
100
AcDbLine
 10
1918.7422933506
 20
-693.7350611118
 30
0.0
 11
1918.7422933506
 21
-628.7350611118
 31
0.0
  0
LINE
  5
1D6
330
1F
100
AcDbEntity
  8
0
  6
Continuous
 62
     7
100
AcDbLine
 10
1912.7422933506
 20
-681.7350611118
 30
0.0
 11
1912.7422933506
 21
-639.7350611118
 31
0.0
  0
LINE
  5
1D7
330
1F
100
AcDbEntity
  8
0
  6
Continuous
 62
     7
100
AcDbLine
 10
1766.8912069676
 20
-634.7350611118
 30
0.0
 11
1821.7778151419
 21
-634.7350611118
 31
0.0
  0
LINE
  5
1D8
330
1F
100
AcDbEntity
  8
0
  6
Continuous
 62
     7
100
AcDbLine
 10
2243.7378866113
 20
-579.7872936799
 30
0.0
 11
2236.029693713
 21
-574.0245868133
 31
0.0
  0
LINE
  5
1D9
330
1F
100
AcDbEntity
  8
0
  6
Continuous
 62
     7
100
AcDbLine
 10
1758.8030754853
 20
-638.85440391
 30
0.0
 11
1743.6651796416
 21
-659.6747455401
 31
0.0
  0
LINE
  5
1DA
330
1F
100
AcDbEntity
  8
0
  6
Continuous
 62
     7
100
AcDbLine
 10
1840.9302855181
 20
-712.7350611118
 30
0.0
 11
1884.9224825176
 21
-634.7350611118
 31
0.0
  0
LINE
  5
1DB
330
1F
100
AcDbEntity
  8
0
  6
Continuous
 62
     7
100
AcDbLine
 10
1746.753311124
 20
-712.7350611118
 30
0.0
 11
1777.7856181424
 21
-712.7350611118
 31
0.0
  0
LINE
  5
1DC
330
1F
100
AcDbEntity
  8
0
  6
Continuous
 62
     7
100
AcDbLine
 10
1596.5763367299
 20
-712.7350611118
 30
0.0
 11
1552.5841397304
 21
-634.7350611118
 31
0.0
  0
LINE
  5
1DD
330
1F
100
AcDbEntity
  8
0
  6
Continuous
 62
     7
100
AcDbLine
 10
1518.7643288974
 20
-693.7350611118
 30
0.0
 11
1537.4545295563
 21
-718.7350611118
 31
0.0
  0
LINE
  5
1DE
330
1F
100
AcDbEntity
  8
0
  6
Continuous
 62
     7
100
AcDbLine
 10
1678.7643288974
 20
-628.7350611118
 30
0.0
 11
1518.7643288974
 21
-628.7350611118
 31
0.0
  0
LINE
  5
1DF
330
1F
100
AcDbEntity
  8
0
  6
Continuous
 62
     7
100
AcDbLine
 10
1718.753311124
 20
-718.7350611118
 30
0.0
 11
1900.0520926917
 21
-718.7350611118
 31
0.0
  0
LINE
  5
1E0
330
1F
100
AcDbEntity
  8
0
  6
Continuous
 62
     7
100
AcDbLine
 10
2261.1132537658
 20
50.8265865975
 30
0.0
 11
2261.1132537658
 21
110.8265865975
 31
0.0
  0
LINE
  5
1E1
330
1F
100
AcDbEntity
  8
0
  6
Continuous
 62
     7
100
AcDbLine
 10
2243.7378866112
 20
-415.8753072479
 30
0.0
 11
2243.7378866112
 21
-528.6885025442
 31
0.0
  0
LINE
  5
1E2
330
1F
100
AcDbEntity
  8
0
  6
Continuous
 62
     7
100
AcDbLine
 10
2191.022770817
 20
-413.4337647833
 30
0.0
 11
2239.9430419242
 21
-413.4337647833
 31
0.0
  0
LINE
  5
1E3
330
1F
100
AcDbEntity
  8
0
  6
Continuous
 62
     7
100
AcDbLine
 10
2188.4227998231
 20
-370.4337647828
 30
0.0
 11
2187.8765512265
 21
-378.5718095307
 31
0.0
  0
LINE
  5
1E4
330
1F
100
AcDbEntity
  8
0
  6
Continuous
 62
     7
100
AcDbLine
 10
2191.0227708177
 20
-407.4337647822
 30
0.0
 11
2239.9430419248
 21
-407.4337647822
 31
0.0
  0
LINE
  5
1E5
330
1F
100
AcDbEntity
  8
0
  6
Continuous
 62
     7
100
AcDbLine
 10
2243.7378866112
 20
-404.9922223177
 30
0.0
 11
2243.7378866112
 21
-292.1790270214
 31
0.0
  0
LINE
  5
1E6
330
1F
100
AcDbEntity
  8
0
  6
Continuous
 62
     7
100
AcDbLine
 10
2188.4227998231
 20
-450.4337647828
 30
0.0
 11
2187.8765509324
 21
-442.2957156541
 31
0.0
  0
LINE
  5
1E7
330
1F
100
AcDbEntity
  8
0
  6
Continuous
 62
     7
100
AcDbLine
 10
2250.7378866109
 20
-229.5771213988
 30
0.0
 11
2250.7378866109
 21
-591.263381259
 31
0.0
  0
LINE
  5
1E8
330
1F
100
AcDbEntity
  8
0
  6
Continuous
 62
     7
100
AcDbLine
 10
1758.7422933506
 20
-628.7350611118
 30
0.0
 11
1918.7422933506
 21
-628.7350611118
 31
0.0
  0
LINE
  5
1E9
330
1F
100
AcDbEntity
  8
0
  6
Continuous
 62
     7
100
AcDbLine
 10
2243.7378866112
 20
-241.0532090087
 30
0.0
 11
2236.076243285
 21
-246.7811150655
 31
0.0
  0
LINE
  5
1EA
330
1F
100
AcDbEntity
  8
0
  6
Continuous
 62
     7
100
AcDbLine
 10
1718.753311124
 20
-718.7350611118
 30
0.0
 11
1537.4545295563
 21
-718.7350611118
 31
0.0
  0
LINE
  5
1EB
330
1F
100
AcDbEntity
  8
0
  6
Continuous
 62
     7
100
AcDbLine
 10
1918.7422933506
 20
-693.7350611118
 30
0.0
 11
1900.0520926917
 21
-718.7350611118
 31
0.0
  0
LINE
  5
1EC
330
1F
100
AcDbEntity
  8
0
  6
Continuous
 62
     7
100
AcDbLine
 10
1845.5226249636
 20
-712.7350611118
 30
0.0
 11
1889.5148219631
 21
-634.7350611118
 31
0.0
  0
LINE
  5
1ED
330
1F
100
AcDbEntity
  8
0
  6
Continuous
 62
     7
100
AcDbLine
 10
1591.9839972844
 20
-712.7350611118
 30
0.0
 11
1547.9918002849
 21
-634.7350611118
 31
0.0
  0
LINE
  5
1EE
330
1F
100
AcDbEntity
  8
0
  6
Continuous
 62
     7
100
AcDbLine
 10
1690.753311124
 20
-712.7350611118
 30
0.0
 11
1659.7210041056
 21
-712.7350611118
 31
0.0
  0
LINE
  5
1EF
330
1F
100
AcDbEntity
  8
0
  6
Continuous
 62
     7
100
AcDbLine
 10
1777.7856181424
 20
-712.7350611118
 30
0.0
 11
1821.7778151419
 21
-634.7350611118
 31
0.0
  0
LINE
  5
1F0
330
1F
100
AcDbEntity
  8
0
  6
Continuous
 62
     7
100
AcDbLine
 10
1678.7035467627
 20
-638.85440391
 30
0.0
 11
1693.8414426064
 21
-659.6747455401
 31
0.0
  0
LINE
  5
1F1
330
1F
100
AcDbEntity
  8
0
  6
Continuous
 62
     7
100
AcDbLine
 10
1670.6154152804
 20
-634.7350611118
 30
0.0
 11
1615.7288071061
 21
-634.7350611118
 31
0.0
  0
LINE
  5
1F2
330
1F
100
AcDbEntity
  8
0
  6
Continuous
 62
     7
100
AcDbLine
 10
1524.7643288974
 20
-681.7350611118
 30
0.0
 11
1524.7643288974
 21
-639.7350611118
 31
0.0
  0
LINE
  5
1F3
330
1F
100
AcDbEntity
  8
0
  6
Continuous
 62
     7
100
AcDbLine
 10
1518.7643288974
 20
-693.7350611118
 30
0.0
 11
1518.7643288974
 21
-628.7350611118
 31
0.0
  0
LINE
  5
1F4
330
1F
100
AcDbEntity
  8
0
  6
Continuous
 62
     7
100
AcDbLine
 10
1678.7643288974
 20
-628.7350611118
 30
0.0
 11
1718.753311124
 21
-683.7350611118
 31
0.0
  0
LINE
  5
1F5
330
1F
100
AcDbEntity
  8
0
  6
Continuous
 62
     7
100
AcDbLine
 10
1659.7210041056
 20
-712.7350611118
 30
0.0
 11
1615.7288071061
 21
-634.7350611118
 31
0.0
  0
LINE
  5
1F6
330
1F
100
AcDbEntity
  8
0
  6
Continuous
 62
     7
100
AcDbLine
 10
1695.753311124
 20
-665.5554027419
 30
0.0
 11
1695.753311124
 21
-707.7350611118
 31
0.0
  0
LINE
  5
1F7
330
1F
100
AcDbEntity
  8
0
  6
Continuous
 62
     7
100
AcDbLine
 10
1782.3779575879
 20
-712.7350611118
 30
0.0
 11
1826.3701545874
 21
-634.7350611118
 31
0.0
  0
LINE
  5
1F8
330
1F
100
AcDbEntity
  8
0
  6
Continuous
 62
     7
100
AcDbLine
 10
1741.753311124
 20
-665.5554027419
 30
0.0
 11
1741.753311124
 21
-707.7350611118
 31
0.0
  0
LINE
  5
1F9
330
1F
100
AcDbEntity
  8
0
  6
Continuous
 62
     7
100
AcDbLine
 10
1655.1286646601
 20
-712.7350611118
 30
0.0
 11
1611.1364676606
 21
-634.7350611118
 31
0.0
  0
LINE
  5
1FA
330
1F
100
AcDbEntity
  8
0
  6
Continuous
 62
     7
100
AcDbLine
 10
1889.5148219631
 20
-634.7350611118
 30
0.0
 11
1907.7422933506
 21
-634.7350611118
 31
0.0
  0
LINE
  5
1FB
330
1F
100
AcDbEntity
  8
0
  6
Continuous
 62
     7
100
AcDbLine
 10
1845.5226249636
 20
-712.7350611118
 30
0.0
 11
1881.7422933506
 21
-712.7350611118
 31
0.0
  0
LINE
  5
1FC
330
1F
100
AcDbEntity
  8
0
  6
Continuous
 62
     7
100
AcDbLine
 10
1826.3701545874
 20
-634.7350611118
 30
0.0
 11
1884.9224825176
 21
-634.7350611118
 31
0.0
  0
LINE
  5
1FD
330
1F
100
AcDbEntity
  8
0
  6
Continuous
 62
     7
100
AcDbLine
 10
1782.3779575879
 20
-712.7350611118
 30
0.0
 11
1840.9302855181
 21
-712.7350611118
 31
0.0
  0
LINE
  5
1FE
330
1F
100
AcDbEntity
  8
0
  6
Continuous
 62
     7
100
AcDbLine
 10
1655.1286646601
 20
-712.7350611118
 30
0.0
 11
1596.5763367299
 21
-712.7350611118
 31
0.0
  0
LINE
  5
1FF
330
1F
100
AcDbEntity
  8
0
  6
Continuous
 62
     7
100
AcDbLine
 10
1611.1364676606
 20
-634.7350611118
 30
0.0
 11
1552.5841397304
 21
-634.7350611118
 31
0.0
  0
LINE
  5
200
330
1F
100
AcDbEntity
  8
0
  6
Continuous
 62
     7
100
AcDbLine
 10
1591.9839972844
 20
-712.7350611118
 30
0.0
 11
1555.7643288974
 21
-712.7350611118
 31
0.0
  0
LINE
  5
201
330
1F
100
AcDbEntity
  8
0
  6
Continuous
 62
     7
100
AcDbLine
 10
2012.9532906464
 20
86.5111491702
 30
0.0
 11
2148.5821021962
 21
86.5111491702
 31
0.0
  0
LINE
  5
202
330
1F
100
AcDbEntity
  8
0
  6
Continuous
 62
     7
100
AcDbLine
 10
1673.3339702824
 20
82.3080508635
 30
0.0
 11
1593.4159862852
 21
100.7585712674
 31
0.0
  0
LINE
  5
203
330
1F
100
AcDbEntity
  8
0
  6
Continuous
 62
     7
100
AcDbLine
 10
1978.133024104
 20
430.2804553765
 30
0.0
 11
1990.4075037988
 21
288.8113388562
 31
0.0
  0
LINE
  5
204
330
1F
100
AcDbEntity
  8
0
  6
Continuous
 62
     7
100
AcDbLine
 10
1672.7826450091
 20
88.5931589789
 30
0.0
 11
1594.8429994485
 21
106.5869439664
 31
0.0
  0
LINE
  5
205
330
1F
100
AcDbEntity
  8
0
  6
Continuous
 62
     7
100
AcDbLine
 10
1998.0176962522
 20
119.7086691458
 30
0.0
 11
1998.3392874577
 21
119.7195808321
 31
0.0
  0
LINE
  5
206
330
1F
100
AcDbEntity
  8
0
  6
Continuous
 62
     7
100
AcDbLine
 10
1555.4630945358
 20
453.3151083163
 30
0.0
 11
1589.5106483212
 21
65.1729948219
 31
0.0
  0
LINE
  5
207
330
1F
100
AcDbEntity
  8
0
  6
Continuous
 62
     7
100
AcDbLine
 10
1589.5106483212
 20
65.1729948219
 30
0.0
 11
1682.5958454842
 21
68.2728783687
 31
0.0
  0
LINE
  5
208
330
1F
100
AcDbEntity
  8
0
  6
Continuous
 62
     7
100
AcDbLine
 10
2010.7386639295
 20
119.8221032639
 30
0.0
 11
2143.863051675
 21
124.3390537356
 31
0.0
  0
LINE
  5
209
330
1F
100
AcDbEntity
  8
0
  6
Continuous
 62
     7
100
AcDbLine
 10
1651.2027402281
 20
426.1542782882
 30
0.0
 11
1682.5958454842
 21
68.2728783687
 31
0.0
  0
LINE
  5
20A
330
1F
100
AcDbEntity
  8
0
  6
Continuous
 62
     7
100
AcDbLine
 10
1974.754758171
 20
469.2165495168
 30
0.0
 11
1977.786604579
 21
434.2731023459
 31
0.0
  0
LINE
  5
20B
330
1F
100
AcDbEntity
  8
0
  6
Continuous
 62
     7
100
AcDbLine
 10
2250.7378866109
 20
-591.263381259
 30
0.0
 11
2232.5678816696
 21
-577.6793397564
 31
0.0
  0
LINE
  5
20C
330
1F
100
AcDbEntity
  8
0
  6
Continuous
 62
     7
100
AcDbLine
 10
1562.4458869155
 20
453.8177043929
 30
0.0
 11
1564.3338626467
 21
432.2947810387
 31
0.0
  0
LINE
  5
20D
330
1F
100
AcDbEntity
  8
0
  6
Continuous
 62
     7
100
AcDbLine
 10
2250.7378866109
 20
-229.5771213988
 30
0.0
 11
2232.6083837998
 21
-243.1308832405
 31
0.0
  0
LINE
  5
20E
330
1F
100
AcDbEntity
  8
0
  6
Continuous
 62
     7
100
AcDbLine
 10
1643.5360293463
 20
422.0045775355
 30
0.0
 11
1648.5243329851
 21
365.1379160531
 31
0.0
  0
LINE
  5
20F
330
1F
100
AcDbEntity
  8
0
  6
Continuous
 62
     7
100
AcDbLine
 10
1595.8169627307
 20
73.3874397655
 30
0.0
 11
1673.88841842
 21
75.9873420953
 31
0.0
  0
LINE
  5
210
330
1F
100
AcDbEntity
  8
0
  6
Continuous
 62
     7
100
AcDbLine
 10
1966.4043230424
 20
483.7781751264
 30
0.0
 11
2001.7510722672
 21
80.8252340078
 31
0.0
  0
LINE
  5
211
330
1F
100
AcDbEntity
  8
0
  6
Continuous
 62
     7
100
AcDbLine
 10
2005.9273442392
 20
114.3880602057
 30
0.0
 11
2007.9724170266
 21
91.0742304316
 31
0.0
  0
LINE
  5
212
330
1F
100
AcDbEntity
  8
0
  6
Continuous
 62
     7
100
AcDbLine
 10
2102.3399738894
 20
286.8149109132
 30
0.0
 11
2000.104537506
 21
286.8149109132
 31
0.0
  0
LINE
  5
213
330
1F
100
AcDbEntity
  8
0
  6
Continuous
 62
     7
100
AcDbLine
 10
1566.5855686561
 20
406.6253325082
 30
0.0
 11
1568.6063490102
 21
383.5884364518
 31
0.0
  0
LINE
  5
214
330
1F
100
AcDbEntity
  8
0
  6
Continuous
 62
     7
100
AcDbLine
 10
2009.5565715859
 20
126.103639455
 30
0.0
 11
2072.3303031282
 21
128.2335710258
 31
0.0
  0
LINE
  5
215
330
1F
100
AcDbEntity
  8
0
  6
Continuous
 62
     7
100
AcDbLine
 10
1991.7901575007
 20
274.4860915293
 30
0.0
 11
1993.7876101823
 21
251.7151309617
 31
0.0
  0
LINE
  5
216
330
1F
100
AcDbEntity
  8
0
  6
Continuous
 62
     7
100
AcDbLine
 10
2104.7479214762
 20
280.5008260756
 30
0.0
 11
1998.9146968644
 21
280.5008260756
 31
0.0
  0
LINE
  5
217
330
1F
100
AcDbEntity
  8
0
  6
Continuous
 62
     7
100
AcDbLine
 10
1993.7876101823
 20
251.7151309617
 30
0.0
 11
2000.1956044191
 21
178.6639966707
 31
0.0
  0
LINE
  5
218
330
1F
100
AcDbEntity
  8
0
  6
Continuous
 62
     7
100
AcDbLine
 10
1654.5044550382
 20
265.2321017438
 30
0.0
 11
1577.4275533747
 21
283.0267066084
 31
0.0
  0
LINE
  5
219
330
1F
100
AcDbEntity
  8
0
  6
Continuous
 62
     7
100
AcDbLine
 10
2000.1956044191
 20
178.6639966707
 30
0.0
 11
2004.4061440366
 21
130.6638450359
 31
0.0
  0
LINE
  5
21A
330
1F
100
AcDbEntity
  8
0
  6
Continuous
 62
     7
100
AcDbLine
 10
2072.3303031282
 20
128.2335710258
 30
0.0
 11
2141.0970768579
 21
130.5668483185
 31
0.0
  0
LINE
  5
21B
330
1F
100
AcDbEntity
  8
0
  6
Continuous
 62
     7
100
AcDbLine
 10
1655.7347491036
 20
260.8428495472
 30
0.0
 11
1577.7951035565
 21
278.8366345316
 31
0.0
  0
LINE
  5
21C
330
1F
100
AcDbEntity
  8
0
  6
Continuous
 62
     7
100
AcDbLine
 10
1665.9829666387
 20
166.1094924012
 30
0.0
 11
1624.1038748327
 21
175.7780425724
 31
0.0
  0
LINE
  5
21D
330
1F
100
AcDbEntity
  8
0
  6
Continuous
 62
     7
100
AcDbLine
 10
1666.3505168209
 20
161.9194203243
 30
0.0
 11
1622.522205893
 21
172.0379831883
 31
0.0
  0
LINE
  5
21E
330
1F
100
AcDbEntity
  8
0
  6
Continuous
 62
     7
100
AcDbLine
 10
1658.0861285407
 20
256.1334467185
 30
0.0
 11
1665.9829666387
 21
166.1094924012
 31
0.0
  0
LINE
  5
21F
330
1F
100
AcDbEntity
  8
0
  6
Continuous
 62
     7
100
AcDbLine
 10
1654.5044550382
 20
265.2321017438
 30
0.0
 11
1585.9528124294
 21
375.4784733886
 31
0.0
  0
LINE
  5
220
330
1F
100
AcDbEntity
  8
0
  6
Continuous
 62
     7
100
AcDbLine
 10
1656.9715583016
 20
268.8395474448
 30
0.0
 11
1591.4525543605
 21
374.2087579173
 31
0.0
  0
LINE
  5
221
330
1F
100
AcDbEntity
  8
0
  6
Continuous
 62
     7
100
AcDbLine
 10
1648.5243329851
 20
365.1379160531
 30
0.0
 11
1588.4720481601
 21
379.0020784236
 31
0.0
  0
LINE
  5
222
330
1F
100
AcDbEntity
  8
0
  6
Continuous
 62
     7
100
AcDbLine
 10
2072.3303031282
 20
33.4182495795
 30
0.0
 11
2141.0970768579
 21
31.0849722867
 31
0.0
  0
LINE
  5
223
330
1F
100
AcDbEntity
  8
0
  6
Continuous
 62
     7
100
AcDbLine
 10
1648.8918831672
 20
360.9478439762
 30
0.0
 11
1591.4525543605
 21
374.2087579173
 31
0.0
  0
LINE
  5
224
330
1F
100
AcDbEntity
  8
0
  6
Continuous
 62
     7
100
AcDbLine
 10
1655.7347491036
 20
260.8428495472
 30
0.0
 11
1620.1471979606
 21
176.6915134047
 31
0.0
  0
LINE
  5
225
330
1F
100
AcDbEntity
  8
0
  6
Continuous
 62
     7
100
AcDbLine
 10
1658.0861285407
 20
256.1334467185
 30
0.0
 11
1624.1038748327
 21
175.7780425724
 31
0.0
  0
LINE
  5
226
330
1F
100
AcDbEntity
  8
0
  6
Continuous
 62
     7
100
AcDbLine
 10
1620.1471979606
 20
176.6915134047
 30
0.0
 11
1586.0649826482
 21
184.5600128035
 31
0.0
  0
LINE
  5
227
330
1F
100
AcDbEntity
  8
0
  6
Continuous
 62
     7
100
AcDbLine
 10
1618.5655290209
 20
172.9514540206
 30
0.0
 11
1586.43253283
 21
180.3699407267
 31
0.0
  0
LINE
  5
228
330
1F
100
AcDbEntity
  8
0
  6
Continuous
 62
     7
100
AcDbLine
 10
1618.5655290209
 20
172.9514540206
 30
0.0
 11
1592.4916200116
 21
111.2963467957
 31
0.0
  0
LINE
  5
229
330
1F
100
AcDbEntity
  8
0
  6
Continuous
 62
     7
100
AcDbLine
 10
1622.522205893
 20
172.0379831883
 30
0.0
 11
1594.8429994485
 21
106.5869439664
 31
0.0
  0
LINE
  5
22A
330
1F
100
AcDbEntity
  8
0
  6
Continuous
 62
     7
100
AcDbLine
 10
1593.4159862852
 20
100.7585712674
 30
0.0
 11
1595.8169627307
 21
73.3874397655
 31
0.0
  0
LINE
  5
22B
330
1F
100
AcDbEntity
  8
0
  6
Continuous
 62
     7
100
AcDbLine
 10
1673.3339702824
 20
82.3080508635
 30
0.0
 11
1673.88841842
 21
75.9873420953
 31
0.0
  0
LINE
  5
22C
330
1F
100
AcDbEntity
  8
0
  6
Continuous
 62
     7
100
AcDbLine
 10
1666.3505168209
 20
161.9194203243
 30
0.0
 11
1672.7826450091
 21
88.5931589789
 31
0.0
  0
LINE
  5
22D
330
1F
100
AcDbEntity
  8
0
  6
Continuous
 62
     7
100
AcDbLine
 10
1648.8918831672
 20
360.9478439762
 30
0.0
 11
1656.9715583016
 21
268.8395474448
 31
0.0
  0
LINE
  5
22E
330
1F
100
AcDbEntity
  8
0
  6
Continuous
 62
     7
100
AcDbLine
 10
1582.972306229
 20
380.2717938949
 30
0.0
 11
1568.6063490102
 21
383.5884364518
 31
0.0
  0
LINE
  5
22F
330
1F
100
AcDbEntity
  8
0
  6
Continuous
 62
     7
100
AcDbLine
 10
1582.972306229
 20
380.2717938949
 30
0.0
 11
1566.5855686561
 21
406.6253325082
 31
0.0
  0
LINE
  5
230
330
1F
100
AcDbEntity
  8
0
  6
Continuous
 62
     7
100
AcDbLine
 10
1585.9528124294
 20
375.4784733886
 30
0.0
 11
1568.973899192
 21
379.398364375
 31
0.0
  0
LINE
  5
231
330
1F
100
AcDbEntity
  8
0
  6
Continuous
 62
     7
100
AcDbLine
 10
1588.4720481601
 20
379.0020784236
 30
0.0
 11
1571.401571255
 21
406.4552227891
 31
0.0
  0
LINE
  5
232
330
1F
100
AcDbEntity
  8
0
  6
Continuous
 62
     7
100
AcDbLine
 10
1568.973899192
 20
379.398364375
 30
0.0
 11
1577.4275533747
 21
283.0267066084
 31
0.0
  0
LINE
  5
233
330
1F
100
AcDbEntity
  8
0
  6
Continuous
 62
     7
100
AcDbLine
 10
1577.7951035565
 20
278.8366345316
 30
0.0
 11
1586.0649826482
 21
184.5600128035
 31
0.0
  0
LINE
  5
234
330
1F
100
AcDbEntity
  8
0
  6
Continuous
 62
     7
100
AcDbLine
 10
1586.43253283
 20
180.3699407267
 30
0.0
 11
1592.4916200116
 21
111.2963467957
 31
0.0
  0
LINE
  5
235
330
1F
100
AcDbEntity
  8
0
  6
Continuous
 62
     7
100
AcDbLine
 10
2000.1956044191
 20
-17.0121760655
 30
0.0
 11
2004.4061440366
 21
30.9879755693
 31
0.0
  0
LINE
  5
236
330
1F
100
AcDbEntity
  8
0
  6
Continuous
 62
     7
100
AcDbLine
 10
1993.7876101823
 20
-90.0633103564
 30
0.0
 11
2000.1956044191
 21
-17.0121760655
 31
0.0
  0
LINE
  5
237
330
1F
100
AcDbEntity
  8
0
  6
Continuous
 62
     7
100
AcDbLine
 10
2104.7479214761
 20
-118.8490054704
 30
0.0
 11
1998.9146968643
 21
-118.8490054704
 31
0.0
  0
LINE
  5
238
330
1F
100
AcDbEntity
  8
0
  6
Continuous
 62
     7
100
AcDbLine
 10
1991.7901575007
 20
-112.834270924
 30
0.0
 11
1993.7876101823
 21
-90.0633103564
 31
0.0
  0
LINE
  5
239
330
1F
100
AcDbEntity
  8
0
  6
Continuous
 62
     7
100
AcDbLine
 10
2009.5565715859
 20
35.5481811503
 30
0.0
 11
2072.3303031282
 21
33.4182495795
 31
0.0
  0
LINE
  5
23A
330
1F
100
AcDbEntity
  8
0
  6
Continuous
 62
     7
100
AcDbLine
 10
2102.3399738894
 20
-125.1630903079
 30
0.0
 11
2000.104537506
 21
-125.1630903079
 31
0.0
  0
LINE
  5
23B
330
1F
100
AcDbEntity
  8
0
  6
Continuous
 62
     7
100
AcDbLine
 10
2005.9273442392
 20
47.2637603996
 30
0.0
 11
2007.9724170266
 21
70.5775901737
 31
0.0
  0
LINE
  5
23C
330
1F
100
AcDbEntity
  8
0
  6
Continuous
 62
     7
100
AcDbLine
 10
1966.4043230424
 20
-322.1263545211
 30
0.0
 11
2001.7510722672
 21
80.8265865975
 31
0.0
  0
LINE
  5
23D
330
1F
100
AcDbEntity
  8
0
  6
Continuous
 62
     7
100
AcDbLine
 10
1974.754758171
 20
-307.5647289115
 30
0.0
 11
1977.786604579
 21
-272.6212817407
 31
0.0
  0
LINE
  5
23E
330
1F
100
AcDbEntity
  8
0
  6
Continuous
 62
     7
100
AcDbLine
 10
2010.7386639294
 20
41.8297173414
 30
0.0
 11
2143.8630516749
 21
37.3127668697
 31
0.0
  0
LINE
  5
23F
330
1F
100
AcDbEntity
  8
0
  6
Continuous
 62
     7
100
AcDbLine
 10
1998.0176962522
 20
41.9431514594
 30
0.0
 11
1998.3392874577
 21
41.9322397732
 31
0.0
  0
LINE
  5
240
330
1F
100
AcDbEntity
  8
0
  6
Continuous
 62
     7
100
AcDbLine
 10
1978.133024104
 20
-268.6286347712
 30
0.0
 11
1990.4075037988
 21
-127.1595182509
 31
0.0
  0
LINE
  5
241
330
1F
100
AcDbEntity
  8
0
  6
Continuous
 62
     7
100
AcDbLine
 10
2012.9532906463
 20
75.1406714351
 30
0.0
 11
2148.5821021962
 21
75.1406714351
 31
0.0
  0
LINE
  5
242
330
1F
100
AcDbEntity
  8
0
  6
Continuous
 62
     7
100
AcDbLine
 10
1605.563880919
 20
-60.2973815691
 30
0.0
 11
1611.6229681006
 21
8.7762123618
 31
0.0
  0
LINE
  5
243
330
1F
100
AcDbEntity
  8
0
  6
Continuous
 62
     7
100
AcDbLine
 10
1685.4818649099
 20
-41.8468611668
 30
0.0
 11
1691.9139930981
 21
31.4794001787
 31
0.0
  0
LINE
  5
244
330
1F
100
AcDbEntity
  8
0
  6
Continuous
 62
     7
100
AcDbLine
 10
1692.4653183714
 20
37.764508294
 30
0.0
 11
1693.0197665089
 21
44.0852170623
 31
0.0
  0
LINE
  5
245
330
1F
100
AcDbEntity
  8
0
  6
Continuous
 62
     7
100
AcDbLine
 10
1612.5473343742
 20
19.3139878902
 30
0.0
 11
1614.9483108196
 21
46.685119392
 31
0.0
  0
LINE
  5
246
330
1F
100
AcDbEntity
  8
0
  6
Continuous
 62
     7
100
AcDbLine
 10
1641.653553982
 20
-51.9654240308
 30
0.0
 11
1613.9743475375
 21
13.4856151911
 31
0.0
  0
LINE
  5
247
330
1F
100
AcDbEntity
  8
0
  6
Continuous
 62
     7
100
AcDbLine
 10
1637.6968771099
 20
-52.8788948631
 30
0.0
 11
1611.6229681006
 21
8.7762123618
 31
0.0
  0
LINE
  5
248
330
1F
100
AcDbEntity
  8
0
  6
Continuous
 62
     7
100
AcDbLine
 10
1614.9483108196
 20
46.685119392
 30
0.0
 11
1693.0197665089
 21
44.0852170623
 31
0.0
  0
LINE
  5
249
330
1F
100
AcDbEntity
  8
0
  6
Continuous
 62
     7
100
AcDbLine
 10
1670.3340883171
 20
-306.0817191307
 30
0.0
 11
1701.7271935732
 21
51.7996807888
 31
0.0
  0
LINE
  5
24A
330
1F
100
AcDbEntity
  8
0
  6
Continuous
 62
     7
100
AcDbLine
 10
1608.6419964101
 20
54.8995643357
 30
0.0
 11
1701.7271935732
 21
51.7996807888
 31
0.0
  0
LINE
  5
24B
330
1F
100
AcDbEntity
  8
0
  6
Continuous
 62
     7
100
AcDbLine
 10
1574.5944426248
 20
-333.2425491587
 30
0.0
 11
1608.6419964101
 21
54.8995643357
 31
0.0
  0
LINE
  5
24C
330
1F
100
AcDbEntity
  8
0
  6
Continuous
 62
     7
100
AcDbLine
 10
1691.9139930981
 20
31.4794001787
 30
0.0
 11
1613.9743475375
 21
13.4856151911
 31
0.0
  0
LINE
  5
24D
330
1F
100
AcDbEntity
  8
0
  6
Continuous
 62
     7
100
AcDbLine
 10
1692.4653183714
 20
37.764508294
 30
0.0
 11
1612.5473343742
 21
19.3139878902
 31
0.0
  0
LINE
  5
24E
330
1F
100
AcDbEntity
  8
0
  6
Continuous
 62
     7
100
AcDbLine
 10
1596.9264516455
 20
-158.7640753741
 30
0.0
 11
1605.1963307372
 21
-64.4874536459
 31
0.0
  0
LINE
  5
24F
330
1F
100
AcDbEntity
  8
0
  6
Continuous
 62
     7
100
AcDbLine
 10
1588.105247281
 20
-259.3258052174
 30
0.0
 11
1596.5589014636
 21
-162.9541474509
 31
0.0
  0
LINE
  5
250
330
1F
100
AcDbEntity
  8
0
  6
Continuous
 62
     7
100
AcDbLine
 10
1607.6033962491
 20
-258.929519266
 30
0.0
 11
1590.532919344
 21
-286.3826636315
 31
0.0
  0
LINE
  5
251
330
1F
100
AcDbEntity
  8
0
  6
Continuous
 62
     7
100
AcDbLine
 10
1605.0841605184
 20
-255.405914231
 30
0.0
 11
1588.105247281
 21
-259.3258052174
 31
0.0
  0
LINE
  5
252
330
1F
100
AcDbEntity
  8
0
  6
Continuous
 62
     7
100
AcDbLine
 10
1602.103654318
 20
-260.1992347373
 30
0.0
 11
1585.7169167451
 21
-286.5527733507
 31
0.0
  0
LINE
  5
253
330
1F
100
AcDbEntity
  8
0
  6
Continuous
 62
     7
100
AcDbLine
 10
1602.103654318
 20
-260.1992347373
 30
0.0
 11
1587.7376970992
 21
-263.5158772942
 31
0.0
  0
LINE
  5
254
330
1F
100
AcDbEntity
  8
0
  6
Continuous
 62
     7
100
AcDbLine
 10
1668.0232312562
 20
-240.8752848186
 30
0.0
 11
1676.1029063906
 21
-148.7669882872
 31
0.0
  0
LINE
  5
255
330
1F
100
AcDbEntity
  8
0
  6
Continuous
 62
     7
100
AcDbLine
 10
1637.6968771099
 20
-52.8788948631
 30
0.0
 11
1605.563880919
 21
-60.2973815691
 31
0.0
  0
LINE
  5
256
330
1F
100
AcDbEntity
  8
0
  6
Continuous
 62
     7
100
AcDbLine
 10
1639.2785460496
 20
-56.6189542472
 30
0.0
 11
1605.1963307372
 21
-64.4874536459
 31
0.0
  0
LINE
  5
257
330
1F
100
AcDbEntity
  8
0
  6
Continuous
 62
     7
100
AcDbLine
 10
1677.2174766297
 20
-136.060887561
 30
0.0
 11
1643.2352229217
 21
-55.7054834149
 31
0.0
  0
LINE
  5
258
330
1F
100
AcDbEntity
  8
0
  6
Continuous
 62
     7
100
AcDbLine
 10
1674.8660971926
 20
-140.7702903896
 30
0.0
 11
1639.2785460496
 21
-56.6189542472
 31
0.0
  0
LINE
  5
259
330
1F
100
AcDbEntity
  8
0
  6
Continuous
 62
     7
100
AcDbLine
 10
1668.0232312562
 20
-240.8752848186
 30
0.0
 11
1610.5839024494
 21
-254.1361987597
 31
0.0
  0
LINE
  5
25A
330
1F
100
AcDbEntity
  8
0
  6
Continuous
 62
     7
100
AcDbLine
 10
1667.655681074
 20
-245.0653568955
 30
0.0
 11
1607.6033962491
 21
-258.929519266
 31
0.0
  0
LINE
  5
25B
330
1F
100
AcDbEntity
  8
0
  6
Continuous
 62
     7
100
AcDbLine
 10
1676.1029063906
 20
-148.7669882872
 30
0.0
 11
1610.5839024494
 21
-254.1361987597
 31
0.0
  0
LINE
  5
25C
330
1F
100
AcDbEntity
  8
0
  6
Continuous
 62
     7
100
AcDbLine
 10
1673.6358031272
 20
-145.1595425862
 30
0.0
 11
1605.0841605184
 21
-255.405914231
 31
0.0
  0
LINE
  5
25D
330
1F
100
AcDbEntity
  8
0
  6
Continuous
 62
     7
100
AcDbLine
 10
1677.2174766297
 20
-136.060887561
 30
0.0
 11
1685.1143147277
 21
-46.0369332436
 31
0.0
  0
LINE
  5
25E
330
1F
100
AcDbEntity
  8
0
  6
Continuous
 62
     7
100
AcDbLine
 10
1685.4818649099
 20
-41.8468611668
 30
0.0
 11
1641.653553982
 21
-51.9654240308
 31
0.0
  0
LINE
  5
25F
330
1F
100
AcDbEntity
  8
0
  6
Continuous
 62
     7
100
AcDbLine
 10
1685.1143147277
 20
-46.0369332436
 30
0.0
 11
1643.2352229217
 21
-55.7054834149
 31
0.0
  0
LINE
  5
260
330
1F
100
AcDbEntity
  8
0
  6
Continuous
 62
     7
100
AcDbLine
 10
1674.8660971926
 20
-140.7702903896
 30
0.0
 11
1596.9264516455
 21
-158.7640753741
 31
0.0
  0
LINE
  5
261
330
1F
100
AcDbEntity
  8
0
  6
Continuous
 62
     7
100
AcDbLine
 10
1673.6358031272
 20
-145.1595425862
 30
0.0
 11
1596.5589014636
 21
-162.9541474509
 31
0.0
  0
LINE
  5
262
330
1F
100
AcDbEntity
  8
0
  6
Continuous
 62
     7
100
AcDbLine
 10
1585.7169167451
 20
-286.5527733507
 30
0.0
 11
1587.7376970992
 21
-263.5158772942
 31
0.0
  0
LINE
  5
263
330
1F
100
AcDbEntity
  8
0
  6
Continuous
 62
     7
100
AcDbLine
 10
1662.6673774352
 20
-301.9320183779
 30
0.0
 11
1667.655681074
 21
-245.0653568955
 31
0.0
  0
LINE
  5
264
330
1F
100
AcDbEntity
  8
0
  6
Continuous
 62
     7
100
AcDbLine
 10
1581.5772350045
 20
-333.7451452353
 30
0.0
 11
1583.4652107357
 21
-312.2222218811
 31
0.0
  0
LINE
  5
265
330
1F
100
AcDbEntity
  8
0
  6
Continuous
 62
     7
100
AcDbLine
 10
1742.1345463189
 20
-365.6594031916
 30
0.0
 11
1738.2069707403
 21
-410.4337647828
 31
0.0
  0
LINE
  5
266
330
1F
100
AcDbEntity
  8
0
  6
Continuous
 62
     7
100
AcDbLine
 10
1817.2002295712
 20
429.9467586272
 30
0.0
 11
1817.2002295712
 21
471.7781751262
 31
0.0
  0
LINE
  5
267
330
1F
100
AcDbEntity
  8
0
  6
Continuous
 62
     7
100
AcDbLine
 10
1742.1344793228
 20
-455.2060100278
 30
0.0
 11
1738.2069707403
 21
-410.4324121929
 31
0.0
  0
LINE
  5
268
330
1F
100
AcDbEntity
  8
0
  6
Continuous
 62
     7
100
AcDbLine
 10
1836.8607793602
 20
471.7781751262
 30
0.0
 11
1864.0773185217
 21
471.7781751262
 31
0.0
  0
LINE
  5
269
330
1F
100
AcDbEntity
  8
0
  6
Continuous
 62
     7
100
AcDbLine
 10
1817.2002295712
 20
-279.9809723794
 30
0.0
 11
1817.2002295712
 21
-78.4035206378
 31
0.0
  0
LINE
  5
26A
330
1F
100
AcDbEntity
  8
0
  6
Continuous
 62
     7
100
AcDbLine
 10
1820.2002295712
 20
-346.2287339006
 30
0.0
 11
1820.2002295712
 21
-334.7287339006
 31
0.0
  0
LINE
  5
26B
330
1F
100
AcDbEntity
  8
0
  6
Continuous
 62
     7
100
AcDbLine
 10
1820.2002295711
 20
-288.114922243
 30
0.0
 11
1780.7872893958
 21
-311.5475901512
 31
0.0
  0
LINE
  5
26C
330
1F
100
AcDbEntity
  8
0
  6
Continuous
 62
     7
100
AcDbLine
 10
1817.2002295712
 20
399.5461973541
 30
0.0
 11
1817.2002295712
 21
423.8071767942
 31
0.0
  0
LINE
  5
26D
330
1F
100
AcDbEntity
  8
0
  6
Continuous
 62
     7
100
AcDbLine
 10
1757.5122254576
 20
-506.4352912775
 30
0.0
 11
1752.0997956918
 21
-530.9650237539
 31
0.0
  0
LINE
  5
26E
330
1F
100
AcDbEntity
  8
0
  6
Continuous
 62
     7
100
AcDbLine
 10
1820.2002295711
 20
483.7781751264
 30
0.0
 11
1796.2002295712
 21
483.7781751264
 31
0.0
  0
LINE
  5
26F
330
1F
100
AcDbEntity
  8
0
  6
Continuous
 62
     7
100
AcDbLine
 10
1496.8437252043
 20
508.2069184459
 30
0.0
 11
2296.8437252043
 21
508.2069184459
 31
0.0
  0
LINE
  5
270
330
1F
100
AcDbEntity
  8
0
  6
Continuous
 62
     7
100
AcDbLine
 10
1715.2072495308
 20
115.455638015
 30
0.0
 11
1735.8617060836
 21
-13.5510389661
 31
0.0
  0
LINE
  5
271
330
1F
100
AcDbEntity
  8
0
  6
Continuous
 62
     7
100
AcDbLine
 10
1833.8607793602
 20
-346.2287339004
 30
0.0
 11
1833.8607793602
 21
-334.7287339006
 31
0.0
  0
LINE
  5
272
330
1F
100
AcDbEntity
  8
0
  6
Continuous
 62
     7
100
AcDbLine
 10
1820.2002295712
 20
-346.2287339006
 30
0.0
 11
1678.9963224477
 21
-346.2287339006
 31
0.0
  0
LINE
  5
273
330
1F
100
AcDbEntity
  8
0
  6
Continuous
 62
     7
100
AcDbLine
 10
1800.2002295712
 20
235.8476133515
 30
0.0
 11
1800.2002295712
 21
292.3109835114
 31
0.0
  0
LINE
  5
274
330
1F
100
AcDbEntity
  8
0
  6
Continuous
 62
     7
100
AcDbLine
 10
1820.2002295711
 20
-288.114922243
 30
0.0
 11
1820.2002295711
 21
483.7781751264
 31
0.0
  0
LINE
  5
275
330
1F
100
AcDbEntity
  8
0
  6
Continuous
 62
     7
100
AcDbLine
 10
1813.8666623002
 20
-283.7367536422
 30
0.0
 11
1780.0637558715
 21
-303.8340180724
 31
0.0
  0
LINE
  5
276
330
1F
100
AcDbEntity
  8
0
  6
Continuous
 62
     7
100
AcDbLine
 10
1943.8676735422
 20
-346.2287339004
 30
0.0
 11
1833.8607793602
 21
-346.2287339004
 31
0.0
  0
LINE
  5
277
330
1F
100
AcDbEntity
  8
0
  6
Continuous
 62
     7
100
AcDbLine
 10
1836.8607793602
 20
423.8071767942
 30
0.0
 11
1873.5424427226
 21
466.5205138446
 31
0.0
  0
LINE
  5
278
330
1F
100
AcDbEntity
  8
0
  6
Continuous
 62
     7
100
AcDbLine
 10
1836.8607793602
 20
58.4006032007
 30
0.0
 11
1836.8607793602
 21
194.4729096795
 31
0.0
  0
LINE
  5
279
330
1F
100
AcDbEntity
  8
0
  6
Continuous
 62
     7
100
AcDbLine
 10
1753.1318957751
 20
-537.8807251939
 30
0.0
 11
1757.9059116207
 21
-538.8954735874
 31
0.0
  0
LINE
  5
27A
330
1F
100
AcDbEntity
  8
0
  6
Continuous
 62
     7
100
AcDbLine
 10
1945.8766223503
 20
115.243077982
 30
0.0
 11
1951.8672407505
 21
115.5784750361
 31
0.0
  0
LINE
  5
27B
330
1F
100
AcDbEntity
  8
0
  6
Continuous
 62
     7
100
AcDbLine
 10
1957.46811456
 20
104.9859619033
 30
0.0
 11
1943.7345021479
 21
350.2857646712
 31
0.0
  0
LINE
  5
27C
330
1F
100
AcDbEntity
  8
0
  6
Continuous
 62
     7
100
AcDbLine
 10
1836.8607793602
 20
429.9467586272
 30
0.0
 11
1867.1118781252
 21
465.1721344486
 31
0.0
  0
LINE
  5
27D
330
1F
100
AcDbEntity
  8
0
  6
Continuous
 62
     7
100
AcDbLine
 10
1836.8607793602
 20
381.7781751262
 30
0.0
 11
1930.6040271069
 21
381.7781751262
 31
0.0
  0
LINE
  5
27E
330
1F
100
AcDbEntity
  8
0
  6
Continuous
 62
     7
100
AcDbLine
 10
1708.1760298859
 20
115.0938167681
 30
0.0
 11
1712.6563473022
 21
195.1179899841
 31
0.0
  0
LINE
  5
27F
330
1F
100
AcDbEntity
  8
0
  6
Continuous
 62
     7
100
AcDbLine
 10
1836.8607793602
 20
-281.7548062295
 30
0.0
 11
1877.9907162748
 21
-306.2083016682
 31
0.0
  0
LINE
  5
280
330
1F
100
AcDbEntity
  8
0
  6
Continuous
 62
     7
100
AcDbLine
 10
1702.7394789401
 20
149.0502353241
 30
0.0
 11
1703.7236102284
 21
142.9034017391
 31
0.0
  0
LINE
  5
281
330
1F
100
AcDbEntity
  8
0
  6
Continuous
 62
     7
100
AcDbLine
 10
1925.488544654
 20
48.0913132129
 30
0.0
 11
1921.2783510407
 21
-213.9005295414
 31
0.0
  0
LINE
  5
282
330
1F
100
AcDbEntity
  8
0
  6
Continuous
 62
     7
100
AcDbLine
 10
1718.8614055123
 20
201.7815494179
 30
0.0
 11
1713.3009166188
 21
202.0928647897
 31
0.0
  0
LINE
  5
283
330
1F
100
AcDbEntity
  8
0
  6
Continuous
 62
     7
100
AcDbLine
 10
1928.9346873304
 20
-338.2287339006
 30
0.0
 11
1852.6336514354
 21
-338.2287339006
 31
0.0
  0
LINE
  5
284
330
1F
100
AcDbEntity
  8
0
  6
Continuous
 62
     7
100
AcDbLine
 10
1801.4273574959
 20
-338.2287339006
 30
0.0
 11
1695.0322952457
 21
-338.2287339006
 31
0.0
  0
LINE
  5
285
330
1F
100
AcDbEntity
  8
0
  6
Continuous
 62
     7
100
AcDbLine
 10
1776.2595807594
 20
414.7773692569
 30
0.0
 11
1796.2002295712
 21
483.7781751264
 31
0.0
  0
LINE
  5
286
330
1F
100
AcDbEntity
  8
0
  6
Continuous
 62
     7
100
AcDbLine
 10
1759.777201628
 20
-542.1369812522
 30
0.0
 11
1743.72942062
 21
-591.5117874251
 31
0.0
  0
LINE
  5
287
330
1F
100
AcDbEntity
  8
0
  6
Continuous
 62
     7
100
AcDbLine
 10
1703.7236102284
 20
142.9034017391
 30
0.0
 11
1706.665728902
 21
195.4533870382
 31
0.0
  0
LINE
  5
288
330
1F
100
AcDbEntity
  8
0
  6
Continuous
 62
     7
100
AcDbLine
 10
1708.1760298859
 20
115.0938167681
 30
0.0
 11
1757.6423223358
 21
-193.8701104713
 31
0.0
  0
LINE
  5
289
330
1F
100
AcDbEntity
  8
0
  6
Continuous
 62
     7
100
AcDbLine
 10
2269.2035940111
 20
470.7293715028
 30
0.0
 11
2138.8869261329
 21
476.9793640198
 31
0.0
  0
LINE
  5
28A
330
1F
100
AcDbEntity
  8
0
  6
Continuous
 62
     7
100
AcDbLine
 10
1712.6563473022
 20
195.1179899841
 30
0.0
 11
1706.665728902
 21
195.4533870382
 31
0.0
  0
LINE
  5
28B
330
1F
100
AcDbEntity
  8
0
  6
Continuous
 62
     7
100
AcDbLine
 10
1782.9843959563
 20
412.8339545897
 30
0.0
 11
1784.6525825883
 21
418.6063957491
 31
0.0
  0
LINE
  5
28C
330
1F
100
AcDbEntity
  8
0
  6
Continuous
 62
     7
100
AcDbLine
 10
1817.2002295712
 20
-66.5578978086
 30
0.0
 11
1817.2002295712
 21
48.3194795539
 31
0.0
  0
LINE
  5
28D
330
1F
100
AcDbEntity
  8
0
  6
Continuous
 62
     7
100
AcDbLine
 10
1750.1712400005
 20
-539.7856113749
 30
0.0
 11
1738.9620230015
 21
-590.2483332526
 31
0.0
  0
LINE
  5
28E
330
1F
100
AcDbEntity
  8
0
  6
Continuous
 62
     7
100
AcDbLine
 10
1817.2002295712
 20
58.4006032007
 30
0.0
 11
1817.2002295712
 21
163.6660127225
 31
0.0
  0
LINE
  5
28F
330
1F
100
AcDbEntity
  8
0
  6
Continuous
 62
     7
100
AcDbLine
 10
2138.8869261329
 20
476.9793640198
 30
0.0
 11
2138.8869261329
 21
225.7685627143
 31
0.0
  0
LINE
  5
290
330
1F
100
AcDbEntity
  8
0
  6
Continuous
 62
     7
100
AcDbLine
 10
1738.2408646804
 20
-28.4111416174
 30
0.0
 11
1761.2109943922
 21
-171.88139446
 31
0.0
  0
LINE
  5
291
330
1F
100
AcDbEntity
  8
0
  6
Continuous
 62
     7
100
AcDbLine
 10
2250.2474051798
 20
464.63046511
 30
0.0
 11
2151.078546038
 21
469.3866074949
 31
0.0
  0
LINE
  5
292
330
1F
100
AcDbEntity
  8
0
  6
Continuous
 62
     7
100
AcDbLine
 10
1932.4860685664
 20
47.8809901131
 30
0.0
 11
1928.2825218977
 21
-213.6972267036
 31
0.0
  0
LINE
  5
293
330
1F
100
AcDbEntity
  8
0
  6
Continuous
 62
     7
100
AcDbLine
 10
2241.8828841447
 20
305.937039168
 30
0.0
 11
2154.0523862457
 21
313.621212046
 31
0.0
  0
LINE
  5
294
330
1F
100
AcDbEntity
  8
0
  6
Continuous
 62
     7
100
AcDbLine
 10
2240.8068629849
 20
295.9929804458
 30
0.0
 11
2151.2355491038
 21
303.8294549875
 31
0.0
  0
LINE
  5
295
330
1F
100
AcDbEntity
  8
0
  6
Continuous
 62
     7
100
AcDbLine
 10
1833.8607793603
 20
483.7781751264
 30
0.0
 11
1861.1784366046
 21
483.7781751264
 31
0.0
  0
LINE
  5
296
330
1F
100
AcDbEntity
  8
0
  6
Continuous
 62
     7
100
AcDbLine
 10
1817.2002295712
 20
232.8476133515
 30
0.0
 11
1817.2002295712
 21
295.3109835114
 31
0.0
  0
LINE
  5
297
330
1F
100
AcDbEntity
  8
0
  6
Continuous
 62
     7
100
AcDbLine
 10
1836.8607793602
 20
399.5461973541
 30
0.0
 11
1836.8607793602
 21
406.7781751262
 31
0.0
  0
LINE
  5
298
330
1F
100
AcDbEntity
  8
0
  6
Continuous
 62
     7
100
AcDbLine
 10
1800.2002295712
 20
302.3109835114
 30
0.0
 11
1800.2002295712
 21
343.7781751262
 31
0.0
  0
LINE
  5
299
330
1F
100
AcDbEntity
  8
0
  6
Continuous
 62
     7
100
AcDbLine
 10
1836.8607793602
 20
429.9467586272
 30
0.0
 11
1836.8607793602
 21
471.7781751262
 31
0.0
  0
LINE
  5
29A
330
1F
100
AcDbEntity
  8
0
  6
Continuous
 62
     7
100
AcDbLine
 10
1836.8607793602
 20
199.4820417659
 30
0.0
 11
1836.8607793602
 21
223.6563357579
 31
0.0
  0
LINE
  5
29B
330
1F
100
AcDbEntity
  8
0
  6
Continuous
 62
     7
100
AcDbLine
 10
2260.2582396549
 20
451.422942794
 30
0.0
 11
2246.2120519792
 21
309.5277842191
 31
0.0
  0
LINE
  5
29C
330
1F
100
AcDbEntity
  8
0
  6
Continuous
 62
     7
100
AcDbLine
 10
2269.2035940111
 20
470.7293715028
 30
0.0
 11
2243.8869261329
 21
214.9793640198
 31
0.0
  0
LINE
  5
29D
330
1F
100
AcDbEntity
  8
0
  6
Continuous
 62
     7
100
AcDbLine
 10
2146.8869261329
 20
465.3911999047
 30
0.0
 11
2146.8869261329
 21
325.0918892768
 31
0.0
  0
LINE
  5
29E
330
1F
100
AcDbEntity
  8
0
  6
Continuous
 62
     7
100
AcDbLine
 10
1937.5516449676
 20
138.7130595873
 30
0.0
 11
1934.3195706209
 21
196.4420223666
 31
0.0
  0
LINE
  5
29F
330
1F
100
AcDbEntity
  8
0
  6
Continuous
 62
     7
100
AcDbLine
 10
1716.5093639637
 20
138.7130595873
 30
0.0
 11
1719.6479892573
 21
194.7729033022
 31
0.0
  0
LINE
  5
2A0
330
1F
100
AcDbEntity
  8
0
  6
Continuous
 62
     7
100
AcDbLine
 10
1791.275838
 20
351.7781751262
 30
0.0
 11
1810.2002295712
 21
351.7781751262
 31
0.0
  0
LINE
  5
2A1
330
1F
100
AcDbEntity
  8
0
  6
Continuous
 62
     7
100
AcDbLine
 10
1836.8607793602
 20
-281.7548062295
 30
0.0
 11
1836.8607793602
 21
-83.9565558501
 31
0.0
  0
LINE
  5
2A2
330
1F
100
AcDbEntity
  8
0
  6
Continuous
 62
     7
100
AcDbLine
 10
1803.2002295712
 20
295.3109835114
 30
0.0
 11
1817.2002295712
 21
295.3109835114
 31
0.0
  0
LINE
  5
2A3
330
1F
100
AcDbEntity
  8
0
  6
Continuous
 62
     7
100
AcDbLine
 10
1803.2002295712
 20
299.3109835114
 30
0.0
 11
1817.2002295712
 21
299.3109835114
 31
0.0
  0
LINE
  5
2A4
330
1F
100
AcDbEntity
  8
0
  6
Continuous
 62
     7
100
AcDbLine
 10
1941.4046616292
 20
195.1179899839
 30
0.0
 11
1947.3952800293
 21
195.453387038
 31
0.0
  0
LINE
  5
2A5
330
1F
100
AcDbEntity
  8
0
  6
Continuous
 62
     7
100
AcDbLine
 10
1808.2002295712
 20
204.3476133514
 30
0.0
 11
1817.2002295712
 21
204.3476133514
 31
0.0
  0
LINE
  5
2A6
330
1F
100
AcDbEntity
  8
0
  6
Continuous
 62
     7
100
AcDbLine
 10
1951.8672407505
 20
115.5784750361
 30
0.0
 11
1947.3952800293
 21
195.453387038
 31
0.0
  0
LINE
  5
2A7
330
1F
100
AcDbEntity
  8
0
  6
Continuous
 62
     7
100
AcDbLine
 10
1808.2002295712
 20
223.8476133514
 30
0.0
 11
1817.2002295712
 21
223.8476133514
 31
0.0
  0
LINE
  5
2A8
330
1F
100
AcDbEntity
  8
0
  6
Continuous
 62
     7
100
AcDbLine
 10
1808.2002295712
 20
201.2292678749
 30
0.0
 11
1808.2002295712
 21
204.3476133514
 31
0.0
  0
LINE
  5
2A9
330
1F
100
AcDbEntity
  8
0
  6
Continuous
 62
     7
100
AcDbLine
 10
1789.4370520855
 20
228.8476133515
 30
0.0
 11
1805.2002295712
 21
228.8476133515
 31
0.0
  0
LINE
  5
2AA
330
1F
100
AcDbEntity
  8
0
  6
Continuous
 62
     7
100
AcDbLine
 10
1803.2002295712
 20
232.8476133515
 30
0.0
 11
1817.2002295712
 21
232.8476133515
 31
0.0
  0
LINE
  5
2AB
330
1F
100
AcDbEntity
  8
0
  6
Continuous
 62
     7
100
AcDbLine
 10
1808.2002295712
 20
223.8476133514
 30
0.0
 11
1808.2002295712
 21
225.8476133515
 31
0.0
  0
LINE
  5
2AC
330
1F
100
AcDbEntity
  8
0
  6
Continuous
 62
     7
100
AcDbLine
 10
1815.2002295712
 20
357.0281751262
 30
0.0
 11
1815.2002295712
 21
376.5281751262
 31
0.0
  0
LINE
  5
2AD
330
1F
100
AcDbEntity
  8
0
  6
Continuous
 62
     7
100
AcDbLine
 10
1783.6611564277
 20
381.7781751262
 30
0.0
 11
1810.2002295712
 21
381.7781751262
 31
0.0
  0
LINE
  5
2AE
330
1F
100
AcDbEntity
  8
0
  6
Continuous
 62
     7
100
AcDbLine
 10
1934.0243102659
 20
201.715748221
 30
0.0
 11
1937.019619466
 21
201.883446748
 31
0.0
  0
LINE
  5
2AF
330
1F
100
AcDbEntity
  8
0
  6
Continuous
 62
     7
100
AcDbLine
 10
1815.9002295712
 20
164.3660127225
 30
0.0
 11
1816.5002295712
 21
164.3660127225
 31
0.0
  0
LINE
  5
2B0
330
1F
100
AcDbEntity
  8
0
  6
Continuous
 62
     7
100
AcDbLine
 10
1833.8607793603
 20
-288.114922243
 30
0.0
 11
1873.2737195356
 21
-311.5475901511
 31
0.0
  0
LINE
  5
2B1
330
1F
100
AcDbEntity
  8
0
  6
Continuous
 62
     7
100
AcDbLine
 10
1815.2002295712
 20
165.0660127225
 30
0.0
 11
1815.2002295712
 21
194.3329184141
 31
0.0
  0
LINE
  5
2B2
330
1F
100
AcDbEntity
  8
0
  6
Continuous
 62
     7
100
AcDbLine
 10
1817.2002295712
 20
204.3476133514
 30
0.0
 11
1817.2002295712
 21
223.8476133514
 31
0.0
  0
LINE
  5
2B3
330
1F
100
AcDbEntity
  8
0
  6
Continuous
 62
     7
100
AcDbLine
 10
1817.2002295712
 20
299.3109835114
 30
0.0
 11
1817.2002295712
 21
346.7781751262
 31
0.0
  0
LINE
  5
2B4
330
1F
100
AcDbEntity
  8
0
  6
Continuous
 62
     7
100
AcDbLine
 10
1803.2002295712
 20
346.7781751262
 30
0.0
 11
1817.2002295712
 21
346.7781751262
 31
0.0
  0
LINE
  5
2B5
330
1F
100
AcDbEntity
  8
0
  6
Continuous
 62
     7
100
AcDbLine
 10
1777.7942843082
 20
386.7781751262
 30
0.0
 11
1809.1020305031
 21
386.7781751262
 31
0.0
  0
LINE
  5
2B6
330
1F
100
AcDbEntity
  8
0
  6
Continuous
 62
     7
100
AcDbLine
 10
1810.2002295712
 20
376.5281751262
 30
0.0
 11
1810.2002295712
 21
381.7781751262
 31
0.0
  0
LINE
  5
2B7
330
1F
100
AcDbEntity
  8
0
  6
Continuous
 62
     7
100
AcDbLine
 10
1810.2002295712
 20
357.0281751262
 30
0.0
 11
1815.2002295712
 21
357.0281751262
 31
0.0
  0
LINE
  5
2B8
330
1F
100
AcDbEntity
  8
0
  6
Continuous
 62
     7
100
AcDbLine
 10
1810.2002295712
 20
376.5281751262
 30
0.0
 11
1815.2002295712
 21
376.5281751262
 31
0.0
  0
LINE
  5
2B9
330
1F
100
AcDbEntity
  8
0
  6
Continuous
 62
     7
100
AcDbLine
 10
1810.2002295712
 20
351.7781751262
 30
0.0
 11
1810.2002295712
 21
357.0281751262
 31
0.0
  0
LINE
  5
2BA
330
1F
100
AcDbEntity
  8
0
  6
Continuous
 62
     7
100
AcDbLine
 10
1945.8766223503
 20
115.243077982
 30
0.0
 11
1941.4046616292
 21
195.1179899839
 31
0.0
  0
LINE
  5
2BB
330
1F
100
AcDbEntity
  8
0
  6
Continuous
 62
     7
100
AcDbLine
 10
1833.8607793603
 20
-288.114922243
 30
0.0
 11
1833.8607793603
 21
483.7781751264
 31
0.0
  0
LINE
  5
2BC
330
1F
100
AcDbEntity
  8
0
  6
Continuous
 62
     7
100
AcDbLine
 10
1811.4785678608
 20
391.6090410928
 30
0.0
 11
1789.9111836017
 21
419.6043697155
 31
0.0
  0
LINE
  5
2BD
330
1F
100
AcDbEntity
  8
0
  6
Continuous
 62
     7
100
AcDbLine
 10
1787.674244971
 20
429.0622811841
 30
0.0
 11
1793.9720936331
 21
450.8547833755
 31
0.0
  0
LINE
  5
2BE
330
1F
100
AcDbEntity
  8
0
  6
Continuous
 62
     7
100
AcDbLine
 10
1817.2002295712
 20
429.9467586272
 30
0.0
 11
1797.0600558522
 21
453.3986402884
 31
0.0
  0
LINE
  5
2BF
330
1F
100
AcDbEntity
  8
0
  6
Continuous
 62
     7
100
AcDbLine
 10
1836.8607793602
 20
-76.7121944227
 30
0.0
 11
1836.8607793602
 21
53.3927646165
 31
0.0
  0
LINE
  5
2C0
330
1F
100
AcDbEntity
  8
0
  6
Continuous
 62
     7
100
AcDbLine
 10
1811.8236922135
 20
397.7153313875
 30
0.0
 11
1787.674244971
 21
429.0622811841
 31
0.0
  0
LINE
  5
2C1
330
1F
100
AcDbEntity
  8
0
  6
Continuous
 62
     7
100
AcDbLine
 10
1817.2002295712
 20
423.8071767942
 30
0.0
 11
1793.9720936331
 21
450.8547833755
 31
0.0
  0
LINE
  5
2C2
330
1F
100
AcDbEntity
  8
0
  6
Continuous
 62
     7
100
AcDbLine
 10
1796.0498159302
 20
458.0443444689
 30
0.0
 11
1798.974983622
 21
468.1663284598
 31
0.0
  0
LINE
  5
2C3
330
1F
100
AcDbEntity
  8
0
  6
Continuous
 62
     7
100
AcDbLine
 10
1817.2002295712
 20
471.7781751262
 30
0.0
 11
1803.7784230484
 21
471.7781751262
 31
0.0
  0
LINE
  5
2C4
330
1F
100
AcDbEntity
  8
0
  6
Continuous
 62
     7
100
AcDbLine
 10
1942.9290136249
 20
111.0371933103
 30
0.0
 11
1945.0912559271
 21
109.1488227994
 31
0.0
  0
LINE
  5
2C5
330
1F
100
AcDbEntity
  8
0
  6
Continuous
 62
     7
100
AcDbLine
 10
1744.7548995602
 20
-470.1296541349
 30
0.0
 11
1800.3344856997
 21
-470.1296541349
 31
0.0
  0
LINE
  5
2C6
330
1F
100
AcDbEntity
  8
0
  6
Continuous
 62
     7
100
AcDbLine
 10
1777.4085578545
 20
-501.3271921634
 30
0.0
 11
1741.8295207897
 21
-610.1367035
 31
0.0
  0
LINE
  5
2C7
330
1F
100
AcDbEntity
  8
0
  6
Continuous
 62
     7
100
AcDbLine
 10
1753.6661027936
 20
-502.5891276174
 30
0.0
 11
1730.6964970879
 21
-610.6526262235
 31
0.0
  0
LINE
  5
2C8
330
1F
100
AcDbEntity
  8
0
  6
Continuous
 62
     7
100
AcDbLine
 10
1730.6964970879
 20
-610.6526262235
 30
0.0
 11
1741.8295207897
 21
-610.1367035
 31
0.0
  0
LINE
  5
2C9
330
1F
100
AcDbEntity
  8
0
  6
Continuous
 62
     7
100
AcDbLine
 10
1759.5520589691
 20
-479.8697668196
 30
0.0
 11
1780.7239514693
 21
-479.5635889548
 31
0.0
  0
LINE
  5
2CA
330
1F
100
AcDbEntity
  8
0
  6
Continuous
 62
     7
100
AcDbLine
 10
1773.8084959414
 20
-498.9667746031
 30
0.0
 11
1762.5863452159
 21
-533.4943841609
 31
0.0
  0
LINE
  5
2CB
330
1F
100
AcDbEntity
  8
0
  6
Continuous
 62
     7
100
AcDbLine
 10
1754.0333223786
 20
-533.9830419796
 30
0.0
 11
1759.6659566062
 21
-535.1802953442
 31
0.0
  0
LINE
  5
2CC
330
1F
100
AcDbEntity
  8
0
  6
Continuous
 62
     7
100
AcDbLine
 10
1836.8607793602
 20
386.7781751262
 30
0.0
 11
1929.0484197584
 21
386.7781751262
 31
0.0
  0
LINE
  5
2CD
330
1F
100
AcDbEntity
  8
0
  6
Continuous
 62
     7
100
AcDbLine
 10
1944.559914594
 20
210.3181340203
 30
0.0
 11
1940.3299896663
 21
285.8699786015
 31
0.0
  0
LINE
  5
2CE
330
1F
100
AcDbEntity
  8
0
  6
Continuous
 62
     7
100
AcDbLine
 10
1836.8607793602
 20
386.7781751262
 30
0.0
 11
1836.8607793602
 21
399.5461973541
 31
0.0
  0
LINE
  5
2CF
330
1F
100
AcDbEntity
  8
0
  6
Continuous
 62
     7
100
AcDbLine
 10
2244.4387848774
 20
291.6141679121
 30
0.0
 11
2237.8169362748
 21
224.7199842926
 31
0.0
  0
LINE
  5
2D0
330
1F
100
AcDbEntity
  8
0
  6
Continuous
 62
     7
100
AcDbLine
 10
1836.8607793602
 20
356.7781751262
 30
0.0
 11
1935.9483391752
 21
356.7781751262
 31
0.0
  0
LINE
  5
2D1
330
1F
100
AcDbEntity
  8
0
  6
Continuous
 62
     7
100
AcDbLine
 10
1836.8607793602
 20
411.7781751262
 30
0.0
 11
1918.5600069119
 21
411.7781751262
 31
0.0
  0
LINE
  5
2D2
330
1F
100
AcDbEntity
  8
0
  6
Continuous
 62
     7
100
AcDbLine
 10
1836.8607793602
 20
406.7781751262
 30
0.0
 11
1921.042800313
 21
406.7781751262
 31
0.0
  0
LINE
  5
2D3
330
1F
100
AcDbEntity
  8
0
  6
Continuous
 62
     7
100
AcDbLine
 10
1836.8607793602
 20
361.7781751262
 30
0.0
 11
1935.1928029264
 21
361.7781751262
 31
0.0
  0
LINE
  5
2D4
330
1F
100
AcDbEntity
  8
0
  6
Continuous
 62
     7
100
AcDbLine
 10
1836.8607793602
 20
411.7781751262
 30
0.0
 11
1836.8607793602
 21
423.8071767942
 31
0.0
  0
LINE
  5
2D5
330
1F
100
AcDbEntity
  8
0
  6
Continuous
 62
     7
100
AcDbLine
 10
1836.8607793602
 20
361.7781751262
 30
0.0
 11
1836.8607793602
 21
381.7781751262
 31
0.0
  0
LINE
  5
2D6
330
1F
100
AcDbEntity
  8
0
  6
Continuous
 62
     7
100
AcDbLine
 10
1836.8607793602
 20
228.8476133515
 30
0.0
 11
1934.0243102659
 21
201.715748221
 31
0.0
  0
LINE
  5
2D7
330
1F
100
AcDbEntity
  8
0
  6
Continuous
 62
     7
100
AcDbLine
 10
1836.8607793602
 20
223.6563357579
 30
0.0
 11
1934.3195706209
 21
196.4420223666
 31
0.0
  0
LINE
  5
2D8
330
1F
100
AcDbEntity
  8
0
  6
Continuous
 62
     7
100
AcDbLine
 10
1836.8607793602
 20
228.8476133515
 30
0.0
 11
1836.8607793602
 21
295.3109835114
 31
0.0
  0
LINE
  5
2D9
330
1F
100
AcDbEntity
  8
0
  6
Continuous
 62
     7
100
AcDbLine
 10
1836.8607793602
 20
295.3109835114
 30
0.0
 11
1930.3456256661
 21
295.3109835114
 31
0.0
  0
LINE
  5
2DA
330
1F
100
AcDbEntity
  8
0
  6
Continuous
 62
     7
100
AcDbLine
 10
1836.8607793602
 20
300.3109835114
 30
0.0
 11
1928.9459494069
 21
300.3109835114
 31
0.0
  0
LINE
  5
2DB
330
1F
100
AcDbEntity
  8
0
  6
Continuous
 62
     7
100
AcDbLine
 10
1836.8607793602
 20
300.3109835114
 30
0.0
 11
1836.8607793602
 21
356.7781751262
 31
0.0
  0
LINE
  5
2DC
330
1F
100
AcDbEntity
  8
0
  6
Continuous
 62
     7
100
AcDbLine
 10
1938.9303134072
 20
310.8699786015
 30
0.0
 11
1936.7526948463
 21
349.7650185559
 31
0.0
  0
LINE
  5
2DD
330
1F
100
AcDbEntity
  8
0
  6
Continuous
 62
     7
100
AcDbLine
 10
2146.8869261329
 20
299.8446761951
 30
0.0
 11
2146.8869261329
 21
233.6196289142
 31
0.0
  0
LINE
  5
2DE
330
1F
100
AcDbEntity
  8
0
  6
Continuous
 62
     7
100
AcDbLine
 10
1835.2600492317
 20
-505.9802502939
 30
0.0
 11
1829.8476194659
 21
-530.5099827704
 31
0.0
  0
LINE
  5
2DF
330
1F
100
AcDbEntity
  8
0
  6
Continuous
 62
     7
100
AcDbLine
 10
2152.6381872733
 20
316.8287699593
 30
0.0
 11
2256.6794567652
 21
452.8351281818
 31
0.0
  0
LINE
  5
2E0
330
1F
100
AcDbEntity
  8
0
  6
Continuous
 62
     7
100
AcDbLine
 10
2150.4754365908
 20
323.8767207596
 30
0.0
 11
2253.2328061905
 21
458.2047204855
 31
0.0
  0
LINE
  5
2E1
330
1F
100
AcDbEntity
  8
0
  6
Continuous
 62
     7
100
AcDbLine
 10
1830.8797195493
 20
-537.4256842103
 30
0.0
 11
1835.6537353948
 21
-538.4404326037
 31
0.0
  0
LINE
  5
2E2
330
1F
100
AcDbEntity
  8
0
  6
Continuous
 62
     7
100
AcDbLine
 10
1837.5250254021
 20
-541.6819402685
 30
0.0
 11
1821.4772443941
 21
-591.0567464415
 31
0.0
  0
LINE
  5
2E3
330
1F
100
AcDbEntity
  8
0
  6
Continuous
 62
     7
100
AcDbLine
 10
1827.9190637747
 20
-539.3305703913
 30
0.0
 11
1816.7098467756
 21
-589.793292269
 31
0.0
  0
LINE
  5
2E4
330
1F
100
AcDbEntity
  8
0
  6
Continuous
 62
     7
100
AcDbLine
 10
1822.5027233343
 20
-469.6746131513
 30
0.0
 11
1878.0823094739
 21
-469.6746131513
 31
0.0
  0
LINE
  5
2E5
330
1F
100
AcDbEntity
  8
0
  6
Continuous
 62
     7
100
AcDbLine
 10
1855.1563816286
 20
-500.8721511798
 30
0.0
 11
1819.5773445638
 21
-609.6816625163
 31
0.0
  0
LINE
  5
2E6
330
1F
100
AcDbEntity
  8
0
  6
Continuous
 62
     7
100
AcDbLine
 10
1831.4139265677
 20
-502.1340866338
 30
0.0
 11
1808.444320862
 21
-610.1975852399
 31
0.0
  0
LINE
  5
2E7
330
1F
100
AcDbEntity
  8
0
  6
Continuous
 62
     7
100
AcDbLine
 10
1808.444320862
 20
-610.1975852399
 30
0.0
 11
1819.5773445638
 21
-609.6816625163
 31
0.0
  0
LINE
  5
2E8
330
1F
100
AcDbEntity
  8
0
  6
Continuous
 62
     7
100
AcDbLine
 10
1837.2998827432
 20
-479.4147258359
 30
0.0
 11
1858.4717752435
 21
-479.1085479711
 31
0.0
  0
LINE
  5
2E9
330
1F
100
AcDbEntity
  8
0
  6
Continuous
 62
     7
100
AcDbLine
 10
1851.5563197155
 20
-498.5117336194
 30
0.0
 11
1840.3341689901
 21
-533.0393431773
 31
0.0
  0
LINE
  5
2EA
330
1F
100
AcDbEntity
  8
0
  6
Continuous
 62
     7
100
AcDbLine
 10
1831.7811461528
 20
-533.528000996
 30
0.0
 11
1837.4137803804
 21
-534.7252543605
 31
0.0
  0
LINE
  5
2EB
330
1F
100
AcDbEntity
  8
0
  6
Continuous
 62
     7
100
AcDbLine
 10
2175.0651980675
 20
-618.2879446253
 30
0.0
 11
2234.0651980675
 21
-618.2879446253
 31
0.0
  0
LINE
  5
2EC
330
1F
100
AcDbEntity
  8
0
  6
Continuous
 62
     7
100
AcDbLine
 10
2024.9849921091
 20
-623.0863355903
 30
0.0
 11
2083.9849921091
 21
-623.0863355903
 31
0.0
  0
LINE
  5
2ED
330
1F
100
AcDbEntity
  8
0
  6
Continuous
 62
     7
100
AcDbLine
 10
2083.9849921091
 20
-625.2447316342
 30
0.0
 11
2083.9849921091
 21
-623.0863355903
 31
0.0
  0
LINE
  5
2EE
330
1F
100
AcDbEntity
  8
0
  6
Continuous
 62
     7
100
AcDbLine
 10
2024.9849921091
 20
-617.0863355903
 30
0.0
 11
2024.9849921091
 21
-623.0863355903
 31
0.0
  0
LINE
  5
2EF
330
1F
100
AcDbEntity
  8
0
  6
Continuous
 62
     7
100
AcDbLine
 10
1952.6056066723
 20
-626.0863355903
 30
0.0
 11
2077.9745743775
 21
-626.0863355903
 31
0.0
  0
LINE
  5
2F0
330
1F
100
AcDbEntity
  8
0
  6
Continuous
 62
     7
100
AcDbLine
 10
1931.1591853867
 20
-710.4534611987
 30
0.0
 11
2009.6701787804
 21
-707.7143883302
 31
0.0
  0
LINE
  5
2F1
330
1F
100
AcDbEntity
  8
0
  6
Continuous
 62
     7
100
AcDbLine
 10
2071.4187519969
 20
-645.3292734117
 30
0.0
 11
2035.9184759802
 21
-693.8196028893
 31
0.0
  0
LINE
  5
2F2
330
1F
100
AcDbEntity
  8
0
  6
Continuous
 62
     7
100
AcDbLine
 10
1921.532526699
 20
-716.7929641354
 30
0.0
 11
2009.8793780783
 21
-713.7107401922
 31
0.0
  0
LINE
  5
2F3
330
1F
100
AcDbEntity
  8
0
  6
Continuous
 62
     7
100
AcDbLine
 10
2076.2600037419
 20
-591.299066867
 30
0.0
 11
2040.7597277251
 21
-542.8087373895
 31
0.0
  0
LINE
  5
2F4
330
1F
100
AcDbEntity
  8
0
  6
Continuous
 62
     7
100
AcDbLine
 10
1921.532526699
 20
-523.3797070453
 30
0.0
 11
2009.8793780783
 21
-526.4619309884
 31
0.0
  0
LINE
  5
2F5
330
1F
100
AcDbEntity
  8
0
  6
Continuous
 62
     7
100
AcDbLine
 10
2076.2600037419
 20
-648.8736043137
 30
0.0
 11
2040.7597277251
 21
-697.3639337912
 31
0.0
  0
LINE
  5
2F6
330
1F
100
AcDbEntity
  8
0
  6
Continuous
 62
     7
100
AcDbLine
 10
2071.4187519969
 20
-594.8433977689
 30
0.0
 11
2035.9184759802
 21
-546.3530682914
 31
0.0
  0
LINE
  5
2F7
330
1F
100
AcDbEntity
  8
0
  6
Continuous
 62
     7
100
AcDbLine
 10
1931.1591853867
 20
-529.7192099819
 30
0.0
 11
2009.6701787804
 21
-532.4582828505
 31
0.0
  0
LINE
  5
2F8
330
1F
100
AcDbEntity
  8
0
  6
Continuous
 62
     7
100
AcDbLine
 10
1952.6056066723
 20
-614.0863355903
 30
0.0
 11
2077.9745743775
 21
-614.0863355903
 31
0.0
  0
LINE
  5
2F9
330
1F
100
AcDbEntity
  8
0
  6
Continuous
 62
     7
100
AcDbLine
 10
2083.9849921091
 20
-614.9279395465
 30
0.0
 11
2083.9849921091
 21
-617.0863355903
 31
0.0
  0
LINE
  5
2FA
330
1F
100
AcDbEntity
  8
0
  6
Continuous
 62
     7
100
AcDbLine
 10
2024.9849921091
 20
-617.0863355903
 30
0.0
 11
2083.9849921091
 21
-617.0863355903
 31
0.0
  0
LINE
  5
2FB
330
1F
100
AcDbEntity
  8
0
  6
Continuous
 62
     7
100
AcDbLine
 10
2234.0651980675
 20
-620.4463406692
 30
0.0
 11
2234.0651980675
 21
-618.2879446253
 31
0.0
  0
LINE
  5
2FC
330
1F
100
AcDbEntity
  8
0
  6
Continuous
 62
     7
100
AcDbLine
 10
2175.0651980675
 20
-612.2879446253
 30
0.0
 11
2175.0651980675
 21
-618.2879446253
 31
0.0
  0
LINE
  5
2FD
330
1F
100
AcDbEntity
  8
0
  6
Continuous
 62
     7
100
AcDbLine
 10
2102.6858126308
 20
-621.2879446253
 30
0.0
 11
2228.0547803359
 21
-621.2879446253
 31
0.0
  0
LINE
  5
2FE
330
1F
100
AcDbEntity
  8
0
  6
Continuous
 62
     7
100
AcDbLine
 10
2081.2393913452
 20
-705.6550702337
 30
0.0
 11
2159.7503847389
 21
-702.9159973651
 31
0.0
  0
LINE
  5
2FF
330
1F
100
AcDbEntity
  8
0
  6
Continuous
 62
     7
100
AcDbLine
 10
2221.4989579554
 20
-640.5308824467
 30
0.0
 11
2185.9986819386
 21
-689.0212119242
 31
0.0
  0
LINE
  5
300
330
1F
100
AcDbEntity
  8
0
  6
Continuous
 62
     7
100
AcDbLine
 10
2071.6127326574
 20
-711.9945731703
 30
0.0
 11
2159.9595840368
 21
-708.9123492272
 31
0.0
  0
LINE
  5
301
330
1F
100
AcDbEntity
  8
0
  6
Continuous
 62
     7
100
AcDbLine
 10
2226.3402097003
 20
-586.500675902
 30
0.0
 11
2190.8399336836
 21
-538.0103464244
 31
0.0
  0
LINE
  5
302
330
1F
100
AcDbEntity
  8
0
  6
Continuous
 62
     7
100
AcDbLine
 10
2071.6127326574
 20
-518.5813160802
 30
0.0
 11
2159.9595840368
 21
-521.6635400234
 31
0.0
  0
LINE
  5
303
330
1F
100
AcDbEntity
  8
0
  6
Continuous
 62
     7
100
AcDbLine
 10
2226.3402097003
 20
-644.0752133486
 30
0.0
 11
2190.8399336836
 21
-692.5655428262
 31
0.0
  0
LINE
  5
304
330
1F
100
AcDbEntity
  8
0
  6
Continuous
 62
     7
100
AcDbLine
 10
2221.4989579554
 20
-590.0450068039
 30
0.0
 11
2185.9986819386
 21
-541.5546773263
 31
0.0
  0
LINE
  5
305
330
1F
100
AcDbEntity
  8
0
  6
Continuous
 62
     7
100
AcDbLine
 10
2081.2393913452
 20
-524.9208190169
 30
0.0
 11
2159.7503847389
 21
-527.6598918855
 31
0.0
  0
LINE
  5
306
330
1F
100
AcDbEntity
  8
0
  6
Continuous
 62
     7
100
AcDbLine
 10
2102.6858126308
 20
-609.2879446253
 30
0.0
 11
2228.0547803359
 21
-609.2879446253
 31
0.0
  0
LINE
  5
307
330
1F
100
AcDbEntity
  8
0
  6
Continuous
 62
     7
100
AcDbLine
 10
2234.0651980675
 20
-610.1295485814
 30
0.0
 11
2234.0651980675
 21
-612.2879446253
 31
0.0
  0
LINE
  5
308
330
1F
100
AcDbEntity
  8
0
  6
Continuous
 62
     7
100
AcDbLine
 10
2175.0651980675
 20
-612.2879446253
 30
0.0
 11
2234.0651980675
 21
-612.2879446253
 31
0.0
  0
LINE
  5
309
330
1F
100
AcDbEntity
  8
0
  6
Continuous
 62
     7
100
AcDbLine
 10
1561.8288192309
 20
-488.8398894233
 30
0.0
 11
1681.8288192309
 21
-488.8398894233
 31
0.0
  0
LINE
  5
30A
330
1F
100
AcDbEntity
  8
0
  6
Continuous
 62
     7
100
AcDbLine
 10
1561.8288192309
 20
-488.8398894233
 30
0.0
 11
1537.1445698216
 21
-453.2383729827
 31
0.0
  0
LINE
  5
30B
330
1F
100
AcDbEntity
  8
0
  6
Continuous
 62
     7
100
AcDbLine
 10
1568.2175130067
 20
-484.8398894233
 30
0.0
 11
1611.1642514991
 21
-484.8398894233
 31
0.0
  0
LINE
  5
30C
330
1F
100
AcDbEntity
  8
0
  6
Continuous
 62
     7
100
AcDbLine
 10
1617.8264485457
 20
-459.6409561911
 30
0.0
 11
1578.5236294372
 21
-458.4714406979
 31
0.0
  0
LINE
  5
30D
330
1F
100
AcDbEntity
  8
0
  6
Continuous
 62
     7
100
AcDbLine
 10
1617.9454220024
 20
-455.642725918
 30
0.0
 11
1537.1445698216
 21
-453.2383729827
 31
0.0
  0
LINE
  5
30E
330
1F
100
AcDbEntity
  8
0
  6
Continuous
 62
     7
100
AcDbLine
 10
1563.9228391574
 20
-484.8398894233
 30
0.0
 11
1544.9475925316
 21
-457.4723343678
 31
0.0
  0
LINE
  5
30F
330
1F
100
AcDbEntity
  8
0
  6
Continuous
 62
     7
100
AcDbLine
 10
1563.9228391574
 20
-484.8398894233
 30
0.0
 11
1574.2783299024
 21
-458.3451153174
 31
0.0
  0
LINE
  5
310
330
1F
100
AcDbEntity
  8
0
  6
Continuous
 62
     7
100
AcDbLine
 10
1568.2175130067
 20
-484.8398894233
 30
0.0
 11
1578.5236294372
 21
-458.4714406979
 31
0.0
  0
LINE
  5
311
330
1F
100
AcDbEntity
  8
0
  6
Continuous
 62
     7
100
AcDbLine
 10
1574.2783299024
 20
-458.3451153174
 30
0.0
 11
1544.9475925316
 21
-457.4723343678
 31
0.0
  0
LINE
  5
312
330
1F
100
AcDbEntity
  8
0
  6
Continuous
 62
     7
100
AcDbLine
 10
1611.1642514991
 20
-484.8398894233
 30
0.0
 11
1620.9517239076
 21
-459.798404001
 31
0.0
  0
LINE
  5
313
330
1F
100
AcDbEntity
  8
0
  6
Continuous
 62
     7
100
AcDbLine
 10
1615.4589253483
 20
-484.8398894233
 30
0.0
 11
1673.090044111
 21
-484.8398894233
 31
0.0
  0
LINE
  5
314
330
1F
100
AcDbEntity
  8
0
  6
Continuous
 62
     7
100
AcDbLine
 10
1615.4589253483
 20
-484.8398894233
 30
0.0
 11
1625.0870571135
 21
-460.2060808998
 31
0.0
  0
LINE
  5
315
330
1F
100
AcDbEntity
  8
0
  6
Continuous
 62
     7
100
AcDbLine
 10
1540.0137074139
 20
-433.7477662194
 30
0.0
 11
1660.0137074139
 21
-433.7477662194
 31
0.0
  0
LINE
  5
316
330
1F
100
AcDbEntity
  8
0
  6
Continuous
 62
     7
100
AcDbLine
 10
1540.0137074139
 20
-433.7477662194
 30
0.0
 11
1515.3294580046
 21
-398.1462497788
 31
0.0
  0
LINE
  5
317
330
1F
100
AcDbEntity
  8
0
  6
Continuous
 62
     7
100
AcDbLine
 10
1546.4024011896
 20
-429.7477662194
 30
0.0
 11
1589.3491396821
 21
-429.7477662194
 31
0.0
  0
LINE
  5
318
330
1F
100
AcDbEntity
  8
0
  6
Continuous
 62
     7
100
AcDbLine
 10
1596.0113367287
 20
-404.5488329872
 30
0.0
 11
1556.7085176201
 21
-403.379317494
 31
0.0
  0
LINE
  5
319
330
1F
100
AcDbEntity
  8
0
  6
Continuous
 62
     7
100
AcDbLine
 10
1596.1303101854
 20
-400.5506027141
 30
0.0
 11
1515.3294580046
 21
-398.1462497788
 31
0.0
  0
LINE
  5
31A
330
1F
100
AcDbEntity
  8
0
  6
Continuous
 62
     7
100
AcDbLine
 10
1542.1077273404
 20
-429.7477662194
 30
0.0
 11
1523.1324807146
 21
-402.3802111639
 31
0.0
  0
LINE
  5
31B
330
1F
100
AcDbEntity
  8
0
  6
Continuous
 62
     7
100
AcDbLine
 10
1542.1077273404
 20
-429.7477662194
 30
0.0
 11
1552.4632180854
 21
-403.2529921135
 31
0.0
  0
LINE
  5
31C
330
1F
100
AcDbEntity
  8
0
  6
Continuous
 62
     7
100
AcDbLine
 10
1546.4024011896
 20
-429.7477662194
 30
0.0
 11
1556.7085176201
 21
-403.379317494
 31
0.0
  0
LINE
  5
31D
330
1F
100
AcDbEntity
  8
0
  6
Continuous
 62
     7
100
AcDbLine
 10
1552.4632180854
 20
-403.2529921135
 30
0.0
 11
1523.1324807146
 21
-402.3802111639
 31
0.0
  0
LINE
  5
31E
330
1F
100
AcDbEntity
  8
0
  6
Continuous
 62
     7
100
AcDbLine
 10
1589.3491396821
 20
-429.7477662194
 30
0.0
 11
1599.1366120906
 21
-404.7062807971
 31
0.0
  0
LINE
  5
31F
330
1F
100
AcDbEntity
  8
0
  6
Continuous
 62
     7
100
AcDbLine
 10
1593.6438135313
 20
-429.7477662194
 30
0.0
 11
1651.2749322939
 21
-429.7477662194
 31
0.0
  0
LINE
  5
320
330
1F
100
AcDbEntity
  8
0
  6
Continuous
 62
     7
100
AcDbLine
 10
1593.6438135313
 20
-429.7477662194
 30
0.0
 11
1603.2719452964
 21
-405.1139576959
 31
0.0
  0
LINE
  5
321
330
1F
100
AcDbEntity
  8
0
  6
Continuous
 62
     7
100
AcDbLine
 10
1980.032604694
 20
-592.407068431
 30
0.0
 11
1980.032604694
 21
-582.1984490217
 31
0.0
  0
LINE
  5
322
330
1F
100
AcDbEntity
  8
0
  6
Continuous
 62
     7
100
AcDbLine
 10
1964.8446608139
 20
-569.5099103155
 30
0.0
 11
1964.738677975
 21
-573.0715769803
 31
0.0
  0
LINE
  5
323
330
1F
100
AcDbEntity
  8
0
  6
Continuous
 62
     7
100
AcDbLine
 10
1980.032604694
 20
-592.407068431
 30
0.0
 11
1963.9172772338
 21
-600.6756274925
 31
0.0
  0
LINE
  5
324
330
1F
100
AcDbEntity
  8
0
  6
Continuous
 62
     7
100
AcDbLine
 10
1980.032604694
 20
-579.0492130212
 30
0.0
 11
1980.032604694
 21
-546.4099202904
 31
0.0
  0
LINE
  5
325
330
1F
100
AcDbEntity
  8
0
  6
Continuous
 62
     7
100
AcDbLine
 10
1964.6460449952
 20
-576.1846073516
 30
0.0
 11
1963.9172772338
 21
-600.6756274925
 31
0.0
  0
LINE
  5
326
330
1F
100
AcDbEntity
  8
0
  6
Continuous
 62
     7
100
AcDbLine
 10
2006.6701787804
 20
-591.1975619256
 30
0.0
 11
2006.6701787804
 21
-580.9889425163
 31
0.0
  0
LINE
  5
327
330
1F
100
AcDbEntity
  8
0
  6
Continuous
 62
     7
100
AcDbLine
 10
1991.4822349003
 20
-568.3004038101
 30
0.0
 11
1991.3762520614
 21
-571.8620704748
 31
0.0
  0
LINE
  5
328
330
1F
100
AcDbEntity
  8
0
  6
Continuous
 62
     7
100
AcDbLine
 10
2006.6701787804
 20
-591.1975619256
 30
0.0
 11
1990.5548513202
 21
-599.466120987
 31
0.0
  0
LINE
  5
329
330
1F
100
AcDbEntity
  8
0
  6
Continuous
 62
     7
100
AcDbLine
 10
2006.6701787804
 20
-577.8397065158
 30
0.0
 11
2006.6701787804
 21
-545.2004137849
 31
0.0
  0
LINE
  5
32A
330
1F
100
AcDbEntity
  8
0
  6
Continuous
 62
     7
100
AcDbLine
 10
1991.2836190816
 20
-574.9751008462
 30
0.0
 11
1990.5548513202
 21
-599.466120987
 31
0.0
  0
LINE
  5
32B
330
1F
100
AcDbEntity
  8
0
  6
Continuous
 62
     7
100
AcDbLine
 10
1586.765131012
 20
-596.0045216184
 30
0.0
 11
1706.765131012
 21
-596.0045216184
 31
0.0
  0
LINE
  5
32C
330
1F
100
AcDbEntity
  8
0
  6
Continuous
 62
     7
100
AcDbLine
 10
1586.765131012
 20
-596.0045216184
 30
0.0
 11
1562.0808816027
 21
-560.4030051778
 31
0.0
  0
LINE
  5
32D
330
1F
100
AcDbEntity
  8
0
  6
Continuous
 62
     7
100
AcDbLine
 10
1593.1538247877
 20
-592.0045216184
 30
0.0
 11
1636.1005632801
 21
-592.0045216184
 31
0.0
  0
LINE
  5
32E
330
1F
100
AcDbEntity
  8
0
  6
Continuous
 62
     7
100
AcDbLine
 10
1642.7627603267
 20
-566.8055883862
 30
0.0
 11
1603.4599412182
 21
-565.636072893
 31
0.0
  0
LINE
  5
32F
330
1F
100
AcDbEntity
  8
0
  6
Continuous
 62
     7
100
AcDbLine
 10
1642.8817337835
 20
-562.8073581132
 30
0.0
 11
1562.0808816027
 21
-560.4030051778
 31
0.0
  0
LINE
  5
330
330
1F
100
AcDbEntity
  8
0
  6
Continuous
 62
     7
100
AcDbLine
 10
1588.8591509384
 20
-592.0045216184
 30
0.0
 11
1569.8839043127
 21
-564.6369665629
 31
0.0
  0
LINE
  5
331
330
1F
100
AcDbEntity
  8
0
  6
Continuous
 62
     7
100
AcDbLine
 10
1588.8591509384
 20
-592.0045216184
 30
0.0
 11
1599.2146416834
 21
-565.5097475125
 31
0.0
  0
LINE
  5
332
330
1F
100
AcDbEntity
  8
0
  6
Continuous
 62
     7
100
AcDbLine
 10
1593.1538247877
 20
-592.0045216184
 30
0.0
 11
1603.4599412182
 21
-565.636072893
 31
0.0
  0
LINE
  5
333
330
1F
100
AcDbEntity
  8
0
  6
Continuous
 62
     7
100
AcDbLine
 10
1599.2146416834
 20
-565.5097475125
 30
0.0
 11
1569.8839043127
 21
-564.6369665629
 31
0.0
  0
LINE
  5
334
330
1F
100
AcDbEntity
  8
0
  6
Continuous
 62
     7
100
AcDbLine
 10
1636.1005632801
 20
-592.0045216184
 30
0.0
 11
1645.8880356886
 21
-566.9630361961
 31
0.0
  0
LINE
  5
335
330
1F
100
AcDbEntity
  8
0
  6
Continuous
 62
     7
100
AcDbLine
 10
1640.3952371294
 20
-592.0045216184
 30
0.0
 11
1698.026355892
 21
-592.0045216184
 31
0.0
  0
LINE
  5
336
330
1F
100
AcDbEntity
  8
0
  6
Continuous
 62
     7
100
AcDbLine
 10
1640.3952371294
 20
-592.0045216184
 30
0.0
 11
1650.0233688945
 21
-567.3707130949
 31
0.0
  0
LINE
  5
337
330
1F
100
AcDbEntity
  8
0
  6
Continuous
 62
     7
100
AcDbLine
 10
1564.9500191949
 20
-540.9123984145
 30
0.0
 11
1684.9500191949
 21
-540.9123984145
 31
0.0
  0
LINE
  5
338
330
1F
100
AcDbEntity
  8
0
  6
Continuous
 62
     7
100
AcDbLine
 10
1564.9500191949
 20
-540.9123984145
 30
0.0
 11
1540.2657697856
 21
-505.310881974
 31
0.0
  0
LINE
  5
339
330
1F
100
AcDbEntity
  8
0
  6
Continuous
 62
     7
100
AcDbLine
 10
1571.3387129707
 20
-536.9123984145
 30
0.0
 11
1614.2854514631
 21
-536.9123984145
 31
0.0
  0
LINE
  5
33A
330
1F
100
AcDbEntity
  8
0
  6
Continuous
 62
     7
100
AcDbLine
 10
1983.032604694
 20
-594.2396509167
 30
0.0
 11
1983.032604694
 21
-541.054582232
 31
0.0
  0
LINE
  5
33B
330
1F
100
AcDbEntity
  8
0
  6
Continuous
 62
     7
100
AcDbLine
 10
1983.032604694
 20
-594.2396509167
 30
0.0
 11
1960.7675256328
 21
-605.6635653038
 31
0.0
  0
LINE
  5
33C
330
1F
100
AcDbEntity
  8
0
  6
Continuous
 62
     7
100
AcDbLine
 10
2009.6701787804
 20
-593.0301444113
 30
0.0
 11
2009.6701787804
 21
-539.8450757265
 31
0.0
  0
LINE
  5
33D
330
1F
100
AcDbEntity
  8
0
  6
Continuous
 62
     7
100
AcDbLine
 10
2009.6701787804
 20
-593.0301444113
 30
0.0
 11
1987.4050997193
 21
-604.4540587983
 31
0.0
  0
LINE
  5
33E
330
1F
100
AcDbEntity
  8
0
  6
Continuous
 62
     7
100
AcDbLine
 10
1961.8539371704
 20
-569.1535435145
 30
0.0
 11
1960.7675256328
 21
-605.6635653038
 31
0.0
  0
LINE
  5
33F
330
1F
100
AcDbEntity
  8
0
  6
Continuous
 62
     7
100
AcDbLine
 10
1988.4915112569
 20
-567.944037009
 30
0.0
 11
1987.4050997193
 21
-604.4540587983
 31
0.0
  0
LINE
  5
340
330
1F
100
AcDbEntity
  8
0
  6
Continuous
 62
     7
100
AcDbLine
 10
2006.6701787804
 20
-580.9889425163
 30
0.0
 11
1991.2836190816
 21
-574.9751008462
 31
0.0
  0
LINE
  5
341
330
1F
100
AcDbEntity
  8
0
  6
Continuous
 62
     7
100
AcDbLine
 10
1980.032604694
 20
-582.1984490217
 30
0.0
 11
1964.6460449952
 21
-576.1846073516
 31
0.0
  0
LINE
  5
342
330
1F
100
AcDbEntity
  8
0
  6
Continuous
 62
     7
100
AcDbLine
 10
2006.6701787804
 20
-577.8397065158
 30
0.0
 11
1991.3762520614
 21
-571.8620704748
 31
0.0
  0
LINE
  5
343
330
1F
100
AcDbEntity
  8
0
  6
Continuous
 62
     7
100
AcDbLine
 10
1980.032604694
 20
-579.0492130212
 30
0.0
 11
1964.738677975
 21
-573.0715769803
 31
0.0
  0
LINE
  5
344
330
1F
100
AcDbEntity
  8
0
  6
Continuous
 62
     7
100
AcDbLine
 10
1620.9476485097
 20
-511.7134651823
 30
0.0
 11
1581.6448294012
 21
-510.5439496891
 31
0.0
  0
LINE
  5
345
330
1F
100
AcDbEntity
  8
0
  6
Continuous
 62
     7
100
AcDbLine
 10
1621.0666219664
 20
-507.7152349093
 30
0.0
 11
1540.2657697856
 21
-505.310881974
 31
0.0
  0
LINE
  5
346
330
1F
100
AcDbEntity
  8
0
  6
Continuous
 62
     7
100
AcDbLine
 10
1567.0440391214
 20
-536.9123984145
 30
0.0
 11
1548.0687924956
 21
-509.5448433591
 31
0.0
  0
LINE
  5
347
330
1F
100
AcDbEntity
  8
0
  6
Continuous
 62
     7
100
AcDbLine
 10
1567.0440391214
 20
-536.9123984145
 30
0.0
 11
1577.3995298664
 21
-510.4176243086
 31
0.0
  0
LINE
  5
348
330
1F
100
AcDbEntity
  8
0
  6
Continuous
 62
     7
100
AcDbLine
 10
1571.3387129707
 20
-536.9123984145
 30
0.0
 11
1581.6448294012
 21
-510.5439496891
 31
0.0
  0
LINE
  5
349
330
1F
100
AcDbEntity
  8
0
  6
Continuous
 62
     7
100
AcDbLine
 10
1577.3995298664
 20
-510.4176243086
 30
0.0
 11
1548.0687924956
 21
-509.5448433591
 31
0.0
  0
LINE
  5
34A
330
1F
100
AcDbEntity
  8
0
  6
Continuous
 62
     7
100
AcDbLine
 10
1614.2854514631
 20
-536.9123984145
 30
0.0
 11
1624.0729238716
 21
-511.8709129922
 31
0.0
  0
LINE
  5
34B
330
1F
100
AcDbEntity
  8
0
  6
Continuous
 62
     7
100
AcDbLine
 10
1618.5801253123
 20
-536.9123984145
 30
0.0
 11
1676.211244075
 21
-536.9123984145
 31
0.0
  0
LINE
  5
34C
330
1F
100
AcDbEntity
  8
0
  6
Continuous
 62
     7
100
AcDbLine
 10
1618.5801253123
 20
-536.9123984145
 30
0.0
 11
1628.2082570775
 21
-512.278589891
 31
0.0
  0
LINE
  5
34D
330
1F
100
AcDbEntity
  8
0
  6
Continuous
 62
     7
100
AcDbLine
 10
1980.2418039919
 20
-685.6028495915
 30
0.0
 11
1980.2418039919
 21
-675.3942301821
 31
0.0
  0
LINE
  5
34E
330
1F
100
AcDbEntity
  8
0
  6
Continuous
 62
     7
100
AcDbLine
 10
1965.0538601118
 20
-662.705691476
 30
0.0
 11
1964.9478772729
 21
-666.2673581407
 31
0.0
  0
LINE
  5
34F
330
1F
100
AcDbEntity
  8
0
  6
Continuous
 62
     7
100
AcDbLine
 10
1980.2418039919
 20
-685.6028495915
 30
0.0
 11
1964.1264765317
 21
-693.8714086529
 31
0.0
  0
LINE
  5
350
330
1F
100
AcDbEntity
  8
0
  6
Continuous
 62
     7
100
AcDbLine
 10
1980.2418039919
 20
-672.2449941817
 30
0.0
 11
1980.2418039919
 21
-639.6057014508
 31
0.0
  0
LINE
  5
351
330
1F
100
AcDbEntity
  8
0
  6
Continuous
 62
     7
100
AcDbLine
 10
1964.8552442931
 20
-669.380388512
 30
0.0
 11
1964.1264765317
 21
-693.8714086529
 31
0.0
  0
LINE
  5
352
330
1F
100
AcDbEntity
  8
0
  6
Continuous
 62
     7
100
AcDbLine
 10
2006.8793780783
 20
-684.393343086
 30
0.0
 11
2006.8793780783
 21
-674.1847236767
 31
0.0
  0
LINE
  5
353
330
1F
100
AcDbEntity
  8
0
  6
Continuous
 62
     7
100
AcDbLine
 10
1991.6914341983
 20
-661.4961849705
 30
0.0
 11
1991.5854513594
 21
-665.0578516353
 31
0.0
  0
LINE
  5
354
330
1F
100
AcDbEntity
  8
0
  6
Continuous
 62
     7
100
AcDbLine
 10
2006.8793780783
 20
-684.393343086
 30
0.0
 11
1990.7640506181
 21
-692.6619021475
 31
0.0
  0
LINE
  5
355
330
1F
100
AcDbEntity
  8
0
  6
Continuous
 62
     7
100
AcDbLine
 10
2006.8793780783
 20
-671.0354876762
 30
0.0
 11
2006.8793780783
 21
-638.3961949453
 31
0.0
  0
LINE
  5
356
330
1F
100
AcDbEntity
  8
0
  6
Continuous
 62
     7
100
AcDbLine
 10
1991.4928183795
 20
-668.1708820066
 30
0.0
 11
1990.7640506181
 21
-692.6619021475
 31
0.0
  0
LINE
  5
357
330
1F
100
AcDbEntity
  8
0
  6
Continuous
 62
     7
100
AcDbLine
 10
1983.2418039919
 20
-687.4354320772
 30
0.0
 11
1983.2418039919
 21
-634.2503633924
 31
0.0
  0
LINE
  5
358
330
1F
100
AcDbEntity
  8
0
  6
Continuous
 62
     7
100
AcDbLine
 10
1983.2418039919
 20
-687.4354320772
 30
0.0
 11
1960.9767249307
 21
-698.8593464642
 31
0.0
  0
LINE
  5
359
330
1F
100
AcDbEntity
  8
0
  6
Continuous
 62
     7
100
AcDbLine
 10
2009.8793780783
 20
-686.2259255717
 30
0.0
 11
2009.8793780783
 21
-633.040856887
 31
0.0
  0
LINE
  5
35A
330
1F
100
AcDbEntity
  8
0
  6
Continuous
 62
     7
100
AcDbLine
 10
2009.8793780783
 20
-686.2259255717
 30
0.0
 11
1987.6142990172
 21
-697.6498399588
 31
0.0
  0
LINE
  5
35B
330
1F
100
AcDbEntity
  8
0
  6
Continuous
 62
     7
100
AcDbLine
 10
1962.0631364683
 20
-662.3493246749
 30
0.0
 11
1960.9767249307
 21
-698.8593464642
 31
0.0
  0
LINE
  5
35C
330
1F
100
AcDbEntity
  8
0
  6
Continuous
 62
     7
100
AcDbLine
 10
1988.7007105548
 20
-661.1398181694
 30
0.0
 11
1987.6142990172
 21
-697.6498399588
 31
0.0
  0
LINE
  5
35D
330
1F
100
AcDbEntity
  8
0
  6
Continuous
 62
     7
100
AcDbLine
 10
2006.8793780783
 20
-674.1847236767
 30
0.0
 11
1991.4928183795
 21
-668.1708820066
 31
0.0
  0
LINE
  5
35E
330
1F
100
AcDbEntity
  8
0
  6
Continuous
 62
     7
100
AcDbLine
 10
1980.2418039919
 20
-675.3942301821
 30
0.0
 11
1964.8552442931
 21
-669.380388512
 31
0.0
  0
LINE
  5
35F
330
1F
100
AcDbEntity
  8
0
  6
Continuous
 62
     7
100
AcDbLine
 10
2006.8793780783
 20
-671.0354876762
 30
0.0
 11
1991.5854513594
 21
-665.0578516353
 31
0.0
  0
LINE
  5
360
330
1F
100
AcDbEntity
  8
0
  6
Continuous
 62
     7
100
AcDbLine
 10
1980.2418039919
 20
-672.2449941817
 30
0.0
 11
1964.9478772729
 21
-666.2673581407
 31
0.0
  0
LINE
  5
361
330
1F
100
AcDbEntity
  8
0
  6
Continuous
 62
     7
100
AcDbLine
 10
1496.8437252043
 20
508.2069184459
 30
0.0
 11
1496.8437252043
 21
-731.7930815541
 31
0.0
  0
LINE
  5
362
330
1F
100
AcDbEntity
  8
0
  6
Continuous
 62
     7
100
AcDbLine
 10
1496.8437252043
 20
-731.7930815541
 30
0.0
 11
2296.8437252043
 21
-731.7930815541
 31
0.0
  0
LINE
  5
363
330
1F
100
AcDbEntity
  8
0
  6
Continuous
 62
     7
100
AcDbLine
 10
2296.8437252043
 20
508.2069184459
 30
0.0
 11
2296.8437252043
 21
-731.7930815541
 31
0.0
  0
POINT
  5
364
330
1F
100
AcDbEntity
  8
0
  6
Continuous
 62
     7
100
AcDbPoint
 10
1591.1447199319
 20
426.9519857203
 30
0.0
  0
POINT
  5
365
330
1F
100
AcDbEntity
  8
0
  6
Continuous
 62
     7
100
AcDbPoint
 10
1565.2204734002
 20
422.1874184401
 30
0.0
  0
POINT
  5
366
330
1F
100
AcDbEntity
  8
0
  6
Continuous
 62
     7
100
AcDbPoint
 10
1584.3518214891
 20
-302.1148592825
 30
0.0
  0
POINT
  5
367
330
1F
100
AcDbEntity
  8
0
  6
Continuous
 62
     7
100
AcDbPoint
 10
1773.2002295712
 20
404.1910689101
 30
0.0
  0
POINT
  5
368
330
1F
100
AcDbEntity
  8
0
  6
Continuous
 62
     7
100
AcDbPoint
 10
2261.1132537658
 20
80.8265865975
 30
0.0
  0
POINT
  5
369
330
1F
100
AcDbEntity
  8
0
  6
Continuous
 62
     7
100
AcDbPoint
 10
2249.1132537658
 20
80.8265865975
 30
0.0
  0
POINT
  5
36A
330
1F
100
AcDbEntity
  8
0
  6
Continuous
 62
     7
100
AcDbPoint
 10
2261.1132537658
 20
80.8265865975
 30
0.0
  0
ENDSEC
  0
SECTION
  2
OBJECTS
  0
DICTIONARY
  5
C
330
0
100
AcDbDictionary
281
     1
  3
ACAD_GROUP
350
D
  3
ACAD_LAYOUT
350
1A
  3
ACAD_MLINESTYLE
350
17
  3
ACAD_PLOTSETTINGS
350
19
  3
ACAD_PLOTSTYLENAME
350
E
  0
DICTIONARY
  5
D
102
{ACAD_REACTORS
330
C
102
}
330
C
100
AcDbDictionary
281
     1
  0
DICTIONARY
  5
1A
102
{ACAD_REACTORS
330
C
102
}
330
C
100
AcDbDictionary
281
     1
  3
Layout1
350
1E
  3
Layout2
350
26
  3
Model
350
22
  0
DICTIONARY
  5
17
102
{ACAD_REACTORS
330
C
102
}
330
C
100
AcDbDictionary
281
     1
  3
Standard
350
18
  0
DICTIONARY
  5
19
102
{ACAD_REACTORS
330
C
102
}
330
C
100
AcDbDictionary
281
     1
  0
ACDBDICTIONARYWDFLT
  5
E
102
{ACAD_REACTORS
330
C
102
}
330
C
100
AcDbDictionary
281
     1
  3
Normal
350
F
100
AcDbDictionaryWithDefault
340
F
  0
LAYOUT
  5
1E
102
{ACAD_REACTORS
330
1A
102
}
330
1A
100
AcDbPlotSettings
  1

  2
none_device
  4

  6

 40
0.0
 41
0.0
 42
0.0
 43
0.0
 44
0.0
 45
0.0
 46
0.0
 47
0.0
 48
0.0
 49
0.0
140
0.0
141
0.0
142
1.0
143
1.0
 70
   688
 72
     0
 73
     0
 74
     5
  7

 75
    16
147
1.0
148
0.0
149
0.0
100
AcDbLayout
  1
Layout1
 70
     1
 71
     1
 10
0.0
 20
0.0
 11
420.0
 21
297.0
 12
0.0
 22
0.0
 32
0.0
 14
1.0000000000E+20
 24
1.0000000000E+20
 34
1.0000000000E+20
 15
-1.0000000000E+20
 25
-1.0000000000E+20
 35
-1.0000000000E+20
146
0.0
 13
0.0
 23
0.0
 33
0.0
 16
1.0
 26
0.0
 36
0.0
 17
0.0
 27
1.0
 37
0.0
 76
     0
330
1B
  0
LAYOUT
  5
26
102
{ACAD_REACTORS
330
1A
102
}
330
1A
100
AcDbPlotSettings
  1

  2
none_device
  4

  6

 40
0.0
 41
0.0
 42
0.0
 43
0.0
 44
0.0
 45
0.0
 46
0.0
 47
0.0
 48
0.0
 49
0.0
140
0.0
141
0.0
142
1.0
143
1.0
 70
   688
 72
     0
 73
     0
 74
     5
  7

 75
    16
147
1.0
148
0.0
149
0.0
100
AcDbLayout
  1
Layout2
 70
     1
 71
     2
 10
0.0
 20
0.0
 11
0.0
 21
0.0
 12
0.0
 22
0.0
 32
0.0
 14
0.0
 24
0.0
 34
0.0
 15
0.0
 25
0.0
 35
0.0
146
0.0
 13
0.0
 23
0.0
 33
0.0
 16
1.0
 26
0.0
 36
0.0
 17
0.0
 27
1.0
 37
0.0
 76
     0
330
23
  0
LAYOUT
  5
22
102
{ACAD_REACTORS
330
1A
102
}
330
1A
100
AcDbPlotSettings
  1

  2
none_device
  4
ANSI_A_(11.00_x_8.50_Inches)
  6

 40
6.35
 41
19.05
 42
6.35000508
 43
19.05000254
 44
279.4
 45
215.9
 46
-193.6123208214
 47
108.1699705401
 48
0.0
 49
0.0
140
0.0
141
0.0
142
0.0067862903
143
1.0
 70
  1696
 72
     0
 73
     0
 74
     0
  7

 75
     0
147
0.0179189148
148
0.0
149
0.0
100
AcDbLayout
  1
Model
 70
     1
 71
     0
 10
0.0
 20
0.0
 11
420.0
 21
297.0
 12
0.0
 22
0.0
 32
0.0
 14
1496.8437252043
 24
-731.7930815541
 34
0.0
 15
2296.8437252043
 25
508.2069184459
 35
0.0
146
0.0
 13
0.0
 23
0.0
 33
0.0
 16
1.0
 26
0.0
 36
0.0
 17
0.0
 27
1.0
 37
0.0
 76
     0
330
1F
331
29
  0
MLINESTYLE
  5
18
102
{ACAD_REACTORS
330
17
102
}
330
17
100
AcDbMlineStyle
  2
Standard
 70
     0
  3

 62
   256
 51
90.0
 52
90.0
 71
     2
 49
0.5
 62
   256
  6
BYLAYER
 49
-0.5
 62
   256
  6
BYLAYER
  0
ACDBPLACEHOLDER
  5
F
102
{ACAD_REACTORS
330
E
102
}
330
E
  0
ENDSEC
  0
EOF
